ISO-10303-21;
HEADER;
FILE_DESCRIPTION (( 'STEP AP203' ),
    '1' );
FILE_NAME ('Web Model 48863_48863.step',
    '2017-04-26T16:42:55',
    ( '' ),
    ( '' ),
    'SwSTEP 2.0',
    'SolidWorks 2016',
    '' );
FILE_SCHEMA (( 'CONFIG_CONTROL_DESIGN' ));
ENDSEC;

DATA;
#1 = LINE ( 'NONE', #42, #268 ) ;
#2 = PRODUCT_RELATED_PRODUCT_CATEGORY ( 'detail', '', ( #26 ) ) ;
#3 = CARTESIAN_POINT ( 'NONE',  ( 0.0000000000000000000, 0.0000000000000000000, -6.250000000000000000 ) ) ;
#4 = CARTESIAN_POINT ( 'NONE',  ( 0.0000000000000000000, 0.0000000000000000000, 6.250000000000000000 ) ) ;
#5 = LINE ( 'NONE', #15, #144 ) ;
#6 = PRODUCT_DEFINITION ( 'UNKNOWN', '', #141, #78 ) ;
#7 = EDGE_CURVE ( 'NONE', #16, #228, #213, .T. ) ;
#8 = FACE_OUTER_BOUND ( 'NONE', #44, .T. ) ;
#9 = PERSON_AND_ORGANIZATION ( #132, #142 ) ;
#10 = DIRECTION ( 'NONE',  ( 1.000000000000000000, 0.0000000000000000000, 0.0000000000000000000 ) ) ;
#11 = ORIENTED_EDGE ( 'NONE', *, *, #217, .F. ) ;
#12 = LINE ( 'NONE', #71, #240 ) ;
#13 = FACE_OUTER_BOUND ( 'NONE', #81, .T. ) ;
#14 = LOCAL_TIME ( 12, 42, 55.00000000000000000, #39 ) ;
#15 = CARTESIAN_POINT ( 'NONE',  ( 6.250000000000000000, -6.250000000000000000, 6.250000000000000000 ) ) ;
#16 = VERTEX_POINT ( 'NONE', #59 ) ;
#17 = FACE_OUTER_BOUND ( 'NONE', #127, .T. ) ;
#18 = COORDINATED_UNIVERSAL_TIME_OFFSET ( 5, 0, .BEHIND. ) ;
#19 = UNCERTAINTY_MEASURE_WITH_UNIT (LENGTH_MEASURE( 1.000000000000000100E-005 ), #70, 'distance_accuracy_value', 'NONE');
#20 = APPLICATION_PROTOCOL_DEFINITION ( 'international standard', 'config_control_design', 1994, #51 ) ;
#21 = EDGE_LOOP ( 'NONE', ( #204, #75, #66, #232 ) ) ;
#22 = ADVANCED_FACE ( 'NONE', ( #61 ), #50, .T. ) ;
#23 = ADVANCED_FACE ( 'NONE', ( #13 ), #167, .T. ) ;
#24 = DIRECTION ( 'NONE',  ( 0.0000000000000000000, 0.0000000000000000000, 1.000000000000000000 ) ) ;
#25 = CARTESIAN_POINT ( 'NONE',  ( 0.0000000000000000000, 6.250000000000000000, 6.250000000000000000 ) ) ;
#26 = PRODUCT ( 'Web Model 48863_48863', 'Web Model 48863_48863', '', ( #187 ) ) ;
#27 = CARTESIAN_POINT ( 'NONE',  ( 0.0000000000000000000, 0.0000000000000000000, 6.250000000000000000 ) ) ;
#28 = VECTOR ( 'NONE', #308, 1000.000000000000000 ) ;
#29 = DIRECTION ( 'NONE',  ( -0.0000000000000000000, 0.0000000000000000000, 1.000000000000000000 ) ) ;
#30 = PLANE ( 'NONE',  #64 ) ;
#31 = CC_DESIGN_SECURITY_CLASSIFICATION ( #184, ( #141 ) ) ;
#32 = FACE_OUTER_BOUND ( 'NONE', #21, .T. ) ;
#33 = AXIS2_PLACEMENT_3D ( 'NONE', #214, #293, #24 ) ;
#34 = DATE_TIME_ROLE ( 'creation_date' ) ;
#35 = VECTOR ( 'NONE', #186, 1000.000000000000000 ) ;
#36 = ORIENTED_EDGE ( 'NONE', *, *, #217, .T. ) ;
#37 = EDGE_LOOP ( 'NONE', ( #216, #281, #41 ) ) ;
#38 = DIRECTION ( 'NONE',  ( -0.0000000000000000000, 0.0000000000000000000, 1.000000000000000000 ) ) ;
#39 = COORDINATED_UNIVERSAL_TIME_OFFSET ( 5, 0, .BEHIND. ) ;
#40 = APPROVAL_STATUS ( 'not_yet_approved' ) ;
#41 = ORIENTED_EDGE ( 'NONE', *, *, #234, .F. ) ;
#42 = CARTESIAN_POINT ( 'NONE',  ( 6.250000000000000000, 0.0000000000000000000, 6.250000000000000000 ) ) ;
#43 = DIRECTION ( 'NONE',  ( -1.000000000000000000, 0.0000000000000000000, 0.0000000000000000000 ) ) ;
#44 = EDGE_LOOP ( 'NONE', ( #235, #85, #242, #316 ) ) ;
#45 = CC_DESIGN_APPROVAL ( #57, ( #184 ) ) ;
#46 = CALENDAR_DATE ( 2017, 26, 4 ) ;
#47 = APPLICATION_PROTOCOL_DEFINITION ( 'international standard', 'config_control_design', 1994, #245 ) ;
#48 = ORIENTED_EDGE ( 'NONE', *, *, #291, .T. ) ;
#49 = LINE ( 'NONE', #182, #35 ) ;
#50 = PLANE ( 'NONE',  #286 ) ;
#51 = APPLICATION_CONTEXT ( 'configuration controlled 3d designs of mechanical parts and assemblies' ) ;
#52 = CARTESIAN_POINT ( 'NONE',  ( -6.250000000000000000, 6.250000000000000000, 6.250000000000000000 ) ) ;
#53 = ORIENTED_EDGE ( 'NONE', *, *, #257, .F. ) ;
#54 = ADVANCED_FACE ( 'NONE', ( #82 ), #218, .T. ) ;
#55 = FACE_OUTER_BOUND ( 'NONE', #226, .T. ) ;
#56 = DIRECTION ( 'NONE',  ( 0.7071067811865474600, -0.7071067811865474600, 0.0000000000000000000 ) ) ;
#57 = APPROVAL ( #166, 'UNSPECIFIED' ) ;
#58 = COORDINATED_UNIVERSAL_TIME_OFFSET ( 5, 0, .BEHIND. ) ;
#59 = CARTESIAN_POINT ( 'NONE',  ( -6.250000000000000000, -6.250000000000000000, 6.250000000000000000 ) ) ;
#60 = CARTESIAN_POINT ( 'NONE',  ( 0.0000000000000000000, -6.250000000000000000, 6.250000000000000000 ) ) ;
#61 = FACE_OUTER_BOUND ( 'NONE', #129, .T. ) ;
#62 = CC_DESIGN_DATE_AND_TIME_ASSIGNMENT ( #152, #260, ( #184 ) ) ;
#63 = APPROVAL_PERSON_ORGANIZATION ( #236, #119, #175 ) ;
#64 = AXIS2_PLACEMENT_3D ( 'NONE', #27, #248, #101 ) ;
#65 = APPROVAL_DATE_TIME ( #246, #119 ) ;
#66 = ORIENTED_EDGE ( 'NONE', *, *, #301, .F. ) ;
#67 = CC_DESIGN_PERSON_AND_ORGANIZATION_ASSIGNMENT ( #95, #193, ( #184 ) ) ;
#68 = PLANE ( 'NONE',  #73 ) ;
#69 = ORIENTED_EDGE ( 'NONE', *, *, #205, .T. ) ;
#70 =( LENGTH_UNIT ( ) NAMED_UNIT ( * ) SI_UNIT ( .MILLI., .METRE. ) );
#71 = CARTESIAN_POINT ( 'NONE',  ( -6.250000000000000000, 6.250000000000000000, 6.250000000000000000 ) ) ;
#72 = CARTESIAN_POINT ( 'NONE',  ( -0.0000000000000000000, 0.0000000000000000000, -6.250000000000000000 ) ) ;
#73 = AXIS2_PLACEMENT_3D ( 'NONE', #233, #38, #90 ) ;
#74 = CARTESIAN_POINT ( 'NONE',  ( -6.250000000000000000, 6.250000000000000000, -6.250000000000000000 ) ) ;
#75 = ORIENTED_EDGE ( 'NONE', *, *, #310, .F. ) ;
#76 = CLOSED_SHELL ( 'NONE', ( #104, #209, #23, #254, #128 ) ) ;
#77 = CARTESIAN_POINT ( 'NONE',  ( 0.0000000000000000000, 0.0000000000000000000, 6.250000000000000000 ) ) ;
#78 = DESIGN_CONTEXT ( 'detailed design', #245, 'design' ) ;
#79 = CARTESIAN_POINT ( 'NONE',  ( -6.250000000000000000, 0.0000000000000000000, 6.250000000000000000 ) ) ;
#80 = CC_DESIGN_PERSON_AND_ORGANIZATION_ASSIGNMENT ( #157, #124, ( #141 ) ) ;
#81 = EDGE_LOOP ( 'NONE', ( #183, #264, #271, #117 ) ) ;
#82 = FACE_OUTER_BOUND ( 'NONE', #120, .T. ) ;
#83 = LINE ( 'NONE', #263, #304 ) ;
#84 = CC_DESIGN_APPROVAL ( #93, ( #141 ) ) ;
#85 = ORIENTED_EDGE ( 'NONE', *, *, #86, .F. ) ;
#86 = EDGE_CURVE ( 'NONE', #156, #88, #83, .T. ) ;
#87 = CARTESIAN_POINT ( 'NONE',  ( -6.250000000000000000, 0.0000000000000000000, -6.250000000000000000 ) ) ;
#88 = VERTEX_POINT ( 'NONE', #220 ) ;
#89 = VERTEX_POINT ( 'NONE', #52 ) ;
#90 = DIRECTION ( 'NONE',  ( 1.000000000000000000, 0.0000000000000000000, 0.0000000000000000000 ) ) ;
#91 = CARTESIAN_POINT ( 'NONE',  ( 0.0000000000000000000, 0.0000000000000000000, 6.250000000000000000 ) ) ;
#92 = CARTESIAN_POINT ( 'NONE',  ( 0.0000000000000000000, -6.250000000000000000, 6.250000000000000000 ) ) ;
#93 = APPROVAL ( #40, 'UNSPECIFIED' ) ;
#94 = VECTOR ( 'NONE', #317, 1000.000000000000000 ) ;
#95 = PERSON_AND_ORGANIZATION ( #132, #142 ) ;
#96 = CARTESIAN_POINT ( 'NONE',  ( 6.250000000000000000, 0.0000000000000000000, -6.250000000000000000 ) ) ;
#97 = LINE ( 'NONE', #113, #201 ) ;
#98 = CALENDAR_DATE ( 2017, 26, 4 ) ;
#99 = CARTESIAN_POINT ( 'NONE',  ( -6.250000000000000000, -6.250000000000000000, 6.250000000000000000 ) ) ;
#100 = PERSON_AND_ORGANIZATION_ROLE ( 'creator' ) ;
#101 = DIRECTION ( 'NONE',  ( 1.000000000000000000, 0.0000000000000000000, 0.0000000000000000000 ) ) ;
#102 = DIRECTION ( 'NONE',  ( 1.000000000000000000, 0.0000000000000000000, 0.0000000000000000000 ) ) ;
#103 = VERTEX_POINT ( 'NONE', #74 ) ;
#104 = ADVANCED_FACE ( 'NONE', ( #137 ), #131, .F. ) ;
#105 = PERSON_AND_ORGANIZATION ( #132, #142 ) ;
#106 = APPROVAL_PERSON_ORGANIZATION ( #9, #57, #237 ) ;
#107 = PERSON_AND_ORGANIZATION_ROLE ( 'design_owner' ) ;
#108 = EDGE_LOOP ( 'NONE', ( #170, #307, #147 ) ) ;
#109 = CARTESIAN_POINT ( 'NONE',  ( -6.250000000000000000, -6.250000000000000000, -6.250000000000000000 ) ) ;
#110 = MANIFOLD_SOLID_BREP ( 'Boss-Extrude3', #76 ) ;
#111 = CC_DESIGN_APPROVAL ( #119, ( #6 ) ) ;
#112 = AXIS2_PLACEMENT_3D ( 'NONE', #60, #306, #179 ) ;
#113 = CARTESIAN_POINT ( 'NONE',  ( -6.250000000000000000, 0.0000000000000000000, 6.250000000000000000 ) ) ;
#114 = LINE ( 'NONE', #92, #207 ) ;
#115 = DIRECTION ( 'NONE',  ( 1.000000000000000000, 0.0000000000000000000, 0.0000000000000000000 ) ) ;
#116 = CARTESIAN_POINT ( 'NONE',  ( 6.250000000000000000, 6.250000000000000000, 6.250000000000000000 ) ) ;
#117 = ORIENTED_EDGE ( 'NONE', *, *, #310, .T. ) ;
#118 = VECTOR ( 'NONE', #243, 1000.000000000000000 ) ;
#119 = APPROVAL ( #295, 'UNSPECIFIED' ) ;
#120 = EDGE_LOOP ( 'NONE', ( #252, #126, #148, #48 ) ) ;
#121 = ORIENTED_EDGE ( 'NONE', *, *, #303, .F. ) ;
#122 = AXIS2_PLACEMENT_3D ( 'NONE', #3, #29, #102 ) ;
#123 = VECTOR ( 'NONE', #276, 1000.000000000000100 ) ;
#124 = PERSON_AND_ORGANIZATION_ROLE ( 'creator' ) ;
#125 = DIRECTION ( 'NONE',  ( -0.0000000000000000000, -0.0000000000000000000, -1.000000000000000000 ) ) ;
#126 = ORIENTED_EDGE ( 'NONE', *, *, #7, .F. ) ;
#127 = EDGE_LOOP ( 'NONE', ( #53, #172, #121 ) ) ;
#128 = ADVANCED_FACE ( 'NONE', ( #17 ), #224, .F. ) ;
#129 = EDGE_LOOP ( 'NONE', ( #11, #311, #275, #181 ) ) ;
#130 = AXIS2_PLACEMENT_3D ( 'NONE', #221, #159, #150 ) ;
#131 = PLANE ( 'NONE',  #136 ) ;
#132 = PERSON ( 'UNSPECIFIED', 'UNSPECIFIED', 'UNSPECIFIED', ('UNSPECIFIED'), ('UNSPECIFIED'), ('UNSPECIFIED') ) ;
#133 = CARTESIAN_POINT ( 'NONE',  ( 6.250000000000000000, 6.250000000000000000, -6.250000000000000000 ) ) ;
#134 = EDGE_LOOP ( 'NONE', ( #288, #160, #299, #314 ) ) ;
#135 = ADVANCED_FACE ( 'NONE', ( #8 ), #155, .F. ) ;
#136 = AXIS2_PLACEMENT_3D ( 'NONE', #4, #189, #140 ) ;
#137 = FACE_OUTER_BOUND ( 'NONE', #134, .T. ) ;
#138 = FACE_OUTER_BOUND ( 'NONE', #108, .T. ) ;
#139 = PERSON_AND_ORGANIZATION ( #132, #142 ) ;
#140 = DIRECTION ( 'NONE',  ( -0.7071067811865474600, 0.7071067811865474600, 0.0000000000000000000 ) ) ;
#141 = PRODUCT_DEFINITION_FORMATION_WITH_SPECIFIED_SOURCE ( 'ANY', '', #26, .NOT_KNOWN. ) ;
#142 = ORGANIZATION ( 'UNSPECIFIED', 'UNSPECIFIED', '' ) ;
#143 = DATE_AND_TIME ( #185, #273 ) ;
#144 = VECTOR ( 'NONE', #125, 1000.000000000000000 ) ;
#145 = DIRECTION ( 'NONE',  ( 0.0000000000000000000, 1.000000000000000000, 0.0000000000000000000 ) ) ;
#146 = APPROVAL_PERSON_ORGANIZATION ( #105, #93, #171 ) ;
#147 = ORIENTED_EDGE ( 'NONE', *, *, #199, .F. ) ;
#148 = ORIENTED_EDGE ( 'NONE', *, *, #215, .T. ) ;
#149 = CC_DESIGN_PERSON_AND_ORGANIZATION_ASSIGNMENT ( #266, #100, ( #6 ) ) ;
#150 = DIRECTION ( 'NONE',  ( 1.000000000000000000, 0.0000000000000000000, 0.0000000000000000000 ) ) ;
#151 = APPROVAL_DATE_TIME ( #250, #93 ) ;
#152 = DATE_AND_TIME ( #98, #312 ) ;
#153 = DIRECTION ( 'NONE',  ( -0.0000000000000000000, -0.0000000000000000000, -1.000000000000000000 ) ) ;
#154 = CC_DESIGN_PERSON_AND_ORGANIZATION_ASSIGNMENT ( #139, #107, ( #26 ) ) ;
#155 = PLANE ( 'NONE',  #112 ) ;
#156 = VERTEX_POINT ( 'NONE', #206 ) ;
#157 = PERSON_AND_ORGANIZATION ( #132, #142 ) ;
#158 = EDGE_CURVE ( 'NONE', #228, #88, #272, .T. ) ;
#159 = DIRECTION ( 'NONE',  ( 0.0000000000000000000, 0.0000000000000000000, 1.000000000000000000 ) ) ;
#160 = ORIENTED_EDGE ( 'NONE', *, *, #180, .F. ) ;
#161 = CARTESIAN_POINT ( 'NONE',  ( -6.250000000000000000, 6.250000000000000000, -6.250000000000000000 ) ) ;
#162 = VERTEX_POINT ( 'NONE', #161 ) ;
#163 = FACE_OUTER_BOUND ( 'NONE', #37, .T. ) ;
#164 = ADVANCED_FACE ( 'NONE', ( #163 ), #30, .T. ) ;
#165 = EDGE_CURVE ( 'NONE', #188, #162, #223, .T. ) ;
#166 = APPROVAL_STATUS ( 'not_yet_approved' ) ;
#167 = PLANE ( 'NONE',  #169 ) ;
#168 = LOCAL_TIME ( 12, 42, 55.00000000000000000, #241 ) ;
#169 = AXIS2_PLACEMENT_3D ( 'NONE', #25, #145, #259 ) ;
#170 = ORIENTED_EDGE ( 'NONE', *, *, #227, .T. ) ;
#171 = APPROVAL_ROLE ( '' ) ;
#172 = ORIENTED_EDGE ( 'NONE', *, *, #269, .T. ) ;
#173 = AXIS2_PLACEMENT_3D ( 'NONE', #79, #43, #279 ) ;
#174 = LINE ( 'NONE', #116, #118 ) ;
#175 = APPROVAL_ROLE ( '' ) ;
#176 = LINE ( 'NONE', #290, #249 ) ;
#177 = LINE ( 'NONE', #72, #211 ) ;
#178 = DIRECTION ( 'NONE',  ( -0.7071067811865474600, 0.7071067811865474600, 0.0000000000000000000 ) ) ;
#179 = DIRECTION ( 'NONE',  ( 0.0000000000000000000, -0.0000000000000000000, 1.000000000000000000 ) ) ;
#180 = EDGE_CURVE ( 'NONE', #210, #277, #5, .T. ) ;
#181 = ORIENTED_EDGE ( 'NONE', *, *, #86, .T. ) ;
#182 = CARTESIAN_POINT ( 'NONE',  ( -0.0000000000000000000, 6.250000000000000000, -6.250000000000000000 ) ) ;
#183 = ORIENTED_EDGE ( 'NONE', *, *, #269, .F. ) ;
#184 = SECURITY_CLASSIFICATION ( '', '', #238 ) ;
#185 = CALENDAR_DATE ( 2017, 26, 4 ) ;
#186 = DIRECTION ( 'NONE',  ( 1.000000000000000000, 0.0000000000000000000, 0.0000000000000000000 ) ) ;
#187 = MECHANICAL_CONTEXT ( 'NONE', #51, 'mechanical' ) ;
#188 = VERTEX_POINT ( 'NONE', #300 ) ;
#189 = DIRECTION ( 'NONE',  ( 0.7071067811865475700, 0.7071067811865475700, -0.0000000000000000000 ) ) ;
#190 = VECTOR ( 'NONE', #282, 1000.000000000000100 ) ;
#191 = CARTESIAN_POINT ( 'NONE',  ( 0.0000000000000000000, -6.250000000000000000, -6.250000000000000000 ) ) ;
#192 = LINE ( 'NONE', #77, #315 ) ;
#193 = PERSON_AND_ORGANIZATION_ROLE ( 'classification_officer' ) ;
#194 = ADVANCED_BREP_SHAPE_REPRESENTATION ( 'Web Model 48863_48863', ( #244, #110, #130 ), #319 ) ;
#195 = LINE ( 'NONE', #87, #28 ) ;
#196 = DIRECTION ( 'NONE',  ( -0.0000000000000000000, -0.0000000000000000000, -1.000000000000000000 ) ) ;
#197 = CARTESIAN_POINT ( 'NONE',  ( 0.0000000000000000000, 0.0000000000000000000, 6.250000000000000000 ) ) ;
#198 = CARTESIAN_POINT ( 'NONE',  ( 0.0000000000000000000, 0.0000000000000000000, 6.250000000000000000 ) ) ;
#199 = EDGE_CURVE ( 'NONE', #188, #302, #176, .T. ) ;
#200 = CARTESIAN_POINT ( 'NONE',  ( 6.250000000000000000, -6.250000000000000000, 6.250000000000000000 ) ) ;
#201 = VECTOR ( 'NONE', #285, 1000.000000000000000 ) ;
#202 = DIRECTION ( 'NONE',  ( -0.0000000000000000000, -0.0000000000000000000, -1.000000000000000000 ) ) ;
#203 = CARTESIAN_POINT ( 'NONE',  ( -6.250000000000000000, 6.250000000000000000, 6.250000000000000000 ) ) ;
#204 = ORIENTED_EDGE ( 'NONE', *, *, #303, .T. ) ;
#205 = EDGE_CURVE ( 'NONE', #228, #103, #195, .T. ) ;
#206 = CARTESIAN_POINT ( 'NONE',  ( 6.250000000000000000, -6.250000000000000000, 6.250000000000000000 ) ) ;
#207 = VECTOR ( 'NONE', #313, 1000.000000000000000 ) ;
#208 = CC_DESIGN_PERSON_AND_ORGANIZATION_ASSIGNMENT ( #283, #278, ( #141 ) ) ;
#209 = ADVANCED_FACE ( 'NONE', ( #32 ), #229, .F. ) ;
#210 = VERTEX_POINT ( 'NONE', #200 ) ;
#211 = VECTOR ( 'NONE', #274, 1000.000000000000100 ) ;
#212 = PRODUCT_DEFINITION_SHAPE ( 'NONE', 'NONE',  #6 ) ;
#213 = LINE ( 'NONE', #99, #280 ) ;
#214 = CARTESIAN_POINT ( 'NONE',  ( 6.250000000000000000, 0.0000000000000000000, 6.250000000000000000 ) ) ;
#215 = EDGE_CURVE ( 'NONE', #16, #89, #97, .T. ) ;
#216 = ORIENTED_EDGE ( 'NONE', *, *, #215, .F. ) ;
#217 = EDGE_CURVE ( 'NONE', #103, #88, #239, .T. ) ;
#218 = PLANE ( 'NONE',  #173 ) ;
#219 = CC_DESIGN_DATE_AND_TIME_ASSIGNMENT ( #267, #34, ( #6 ) ) ;
#220 = CARTESIAN_POINT ( 'NONE',  ( 6.250000000000000000, -6.250000000000000000, -6.250000000000000000 ) ) ;
#221 = CARTESIAN_POINT ( 'NONE',  ( 0.0000000000000000000, 0.0000000000000000000, 0.0000000000000000000 ) ) ;
#222 = CALENDAR_DATE ( 2017, 26, 4 ) ;
#223 = LINE ( 'NONE', #203, #296 ) ;
#224 = PLANE ( 'NONE',  #122 ) ;
#225 =( NAMED_UNIT ( * ) SI_UNIT ( $, .STERADIAN. ) SOLID_ANGLE_UNIT ( ) );
#226 = EDGE_LOOP ( 'NONE', ( #69, #36, #265 ) ) ;
#227 = EDGE_CURVE ( 'NONE', #188, #210, #297, .T. ) ;
#228 = VERTEX_POINT ( 'NONE', #109 ) ;
#229 = PLANE ( 'NONE',  #33 ) ;
#230 = ADVANCED_FACE ( 'NONE', ( #55 ), #68, .F. ) ;
#231 = DIRECTION ( 'NONE',  ( 0.0000000000000000000, 1.000000000000000000, -0.0000000000000000000 ) ) ;
#232 = ORIENTED_EDGE ( 'NONE', *, *, #180, .T. ) ;
#233 = CARTESIAN_POINT ( 'NONE',  ( 0.0000000000000000000, 0.0000000000000000000, -6.250000000000000000 ) ) ;
#234 = EDGE_CURVE ( 'NONE', #89, #156, #192, .T. ) ;
#235 = ORIENTED_EDGE ( 'NONE', *, *, #158, .T. ) ;
#236 = PERSON_AND_ORGANIZATION ( #132, #142 ) ;
#237 = APPROVAL_ROLE ( '' ) ;
#238 = SECURITY_CLASSIFICATION_LEVEL ( 'unclassified' ) ;
#239 = LINE ( 'NONE', #289, #123 ) ;
#240 = VECTOR ( 'NONE', #258, 1000.000000000000000 ) ;
#241 = COORDINATED_UNIVERSAL_TIME_OFFSET ( 5, 0, .BEHIND. ) ;
#242 = ORIENTED_EDGE ( 'NONE', *, *, #251, .F. ) ;
#243 = DIRECTION ( 'NONE',  ( -0.0000000000000000000, -0.0000000000000000000, -1.000000000000000000 ) ) ;
#244 = MANIFOLD_SOLID_BREP ( 'Boss-Extrude2', #292 ) ;
#245 = APPLICATION_CONTEXT ( 'configuration controlled 3d designs of mechanical parts and assemblies' ) ;
#246 = DATE_AND_TIME ( #287, #168 ) ;
#247 = COORDINATED_UNIVERSAL_TIME_OFFSET ( 5, 0, .BEHIND. ) ;
#248 = DIRECTION ( 'NONE',  ( -0.0000000000000000000, 0.0000000000000000000, 1.000000000000000000 ) ) ;
#249 = VECTOR ( 'NONE', #115, 1000.000000000000000 ) ;
#250 = DATE_AND_TIME ( #222, #284 ) ;
#251 = EDGE_CURVE ( 'NONE', #16, #156, #114, .T. ) ;
#252 = ORIENTED_EDGE ( 'NONE', *, *, #205, .F. ) ;
#253 = PLANE ( 'NONE',  #256 ) ;
#254 = ADVANCED_FACE ( 'NONE', ( #138 ), #253, .T. ) ;
#255 = CARTESIAN_POINT ( 'NONE',  ( 6.250000000000000000, -6.250000000000000000, -6.250000000000000000 ) ) ;
#256 = AXIS2_PLACEMENT_3D ( 'NONE', #197, #270, #318 ) ;
#257 = EDGE_CURVE ( 'NONE', #162, #277, #177, .T. ) ;
#258 = DIRECTION ( 'NONE',  ( -0.0000000000000000000, -0.0000000000000000000, -1.000000000000000000 ) ) ;
#259 = DIRECTION ( 'NONE',  ( 0.0000000000000000000, -0.0000000000000000000, 1.000000000000000000 ) ) ;
#260 = DATE_TIME_ROLE ( 'classification_date' ) ;
#261 = VERTEX_POINT ( 'NONE', #133 ) ;
#262 = APPROVAL_DATE_TIME ( #143, #57 ) ;
#263 = CARTESIAN_POINT ( 'NONE',  ( 6.250000000000000000, -6.250000000000000000, 6.250000000000000000 ) ) ;
#264 = ORIENTED_EDGE ( 'NONE', *, *, #165, .F. ) ;
#265 = ORIENTED_EDGE ( 'NONE', *, *, #158, .F. ) ;
#266 = PERSON_AND_ORGANIZATION ( #132, #142 ) ;
#267 = DATE_AND_TIME ( #46, #14 ) ;
#268 = VECTOR ( 'NONE', #231, 1000.000000000000000 ) ;
#269 = EDGE_CURVE ( 'NONE', #162, #261, #49, .T. ) ;
#270 = DIRECTION ( 'NONE',  ( -0.0000000000000000000, 0.0000000000000000000, 1.000000000000000000 ) ) ;
#271 = ORIENTED_EDGE ( 'NONE', *, *, #199, .T. ) ;
#272 = LINE ( 'NONE', #191, #321 ) ;
#273 = LOCAL_TIME ( 12, 42, 55.00000000000000000, #18 ) ;
#274 = DIRECTION ( 'NONE',  ( 0.7071067811865474600, -0.7071067811865474600, 0.0000000000000000000 ) ) ;
#275 = ORIENTED_EDGE ( 'NONE', *, *, #234, .T. ) ;
#276 = DIRECTION ( 'NONE',  ( 0.7071067811865474600, -0.7071067811865474600, 0.0000000000000000000 ) ) ;
#277 = VERTEX_POINT ( 'NONE', #255 ) ;
#278 = PERSON_AND_ORGANIZATION_ROLE ( 'design_supplier' ) ;
#279 = DIRECTION ( 'NONE',  ( 0.0000000000000000000, 0.0000000000000000000, 1.000000000000000000 ) ) ;
#280 = VECTOR ( 'NONE', #196, 1000.000000000000000 ) ;
#281 = ORIENTED_EDGE ( 'NONE', *, *, #251, .T. ) ;
#282 = DIRECTION ( 'NONE',  ( 0.7071067811865474600, -0.7071067811865474600, 0.0000000000000000000 ) ) ;
#283 = PERSON_AND_ORGANIZATION ( #132, #142 ) ;
#284 = LOCAL_TIME ( 12, 42, 55.00000000000000000, #58 ) ;
#285 = DIRECTION ( 'NONE',  ( 0.0000000000000000000, 1.000000000000000000, -0.0000000000000000000 ) ) ;
#286 = AXIS2_PLACEMENT_3D ( 'NONE', #91, #309, #178 ) ;
#287 = CALENDAR_DATE ( 2017, 26, 4 ) ;
#288 = ORIENTED_EDGE ( 'NONE', *, *, #257, .T. ) ;
#289 = CARTESIAN_POINT ( 'NONE',  ( -0.0000000000000000000, 0.0000000000000000000, -6.250000000000000000 ) ) ;
#290 = CARTESIAN_POINT ( 'NONE',  ( 0.0000000000000000000, 6.250000000000000000, 6.250000000000000000 ) ) ;
#291 = EDGE_CURVE ( 'NONE', #89, #103, #12, .T. ) ;
#292 = CLOSED_SHELL ( 'NONE', ( #54, #135, #22, #164, #230 ) ) ;
#293 = DIRECTION ( 'NONE',  ( -1.000000000000000000, 0.0000000000000000000, 0.0000000000000000000 ) ) ;
#294 = SHAPE_DEFINITION_REPRESENTATION ( #212, #194 ) ;
#295 = APPROVAL_STATUS ( 'not_yet_approved' ) ;
#296 = VECTOR ( 'NONE', #202, 1000.000000000000000 ) ;
#297 = LINE ( 'NONE', #198, #190 ) ;
#298 =( NAMED_UNIT ( * ) PLANE_ANGLE_UNIT ( ) SI_UNIT ( $, .RADIAN. ) );
#299 = ORIENTED_EDGE ( 'NONE', *, *, #227, .F. ) ;
#300 = CARTESIAN_POINT ( 'NONE',  ( -6.250000000000000000, 6.250000000000000000, 6.250000000000000000 ) ) ;
#301 = EDGE_CURVE ( 'NONE', #210, #302, #1, .T. ) ;
#302 = VERTEX_POINT ( 'NONE', #305 ) ;
#303 = EDGE_CURVE ( 'NONE', #277, #261, #320, .T. ) ;
#304 = VECTOR ( 'NONE', #153, 1000.000000000000000 ) ;
#305 = CARTESIAN_POINT ( 'NONE',  ( 6.250000000000000000, 6.250000000000000000, 6.250000000000000000 ) ) ;
#306 = DIRECTION ( 'NONE',  ( 0.0000000000000000000, 1.000000000000000000, 0.0000000000000000000 ) ) ;
#307 = ORIENTED_EDGE ( 'NONE', *, *, #301, .T. ) ;
#308 = DIRECTION ( 'NONE',  ( 0.0000000000000000000, 1.000000000000000000, -0.0000000000000000000 ) ) ;
#309 = DIRECTION ( 'NONE',  ( 0.7071067811865475700, 0.7071067811865475700, -0.0000000000000000000 ) ) ;
#310 = EDGE_CURVE ( 'NONE', #302, #261, #174, .T. ) ;
#311 = ORIENTED_EDGE ( 'NONE', *, *, #291, .F. ) ;
#312 = LOCAL_TIME ( 12, 42, 55.00000000000000000, #247 ) ;
#313 = DIRECTION ( 'NONE',  ( 1.000000000000000000, 0.0000000000000000000, 0.0000000000000000000 ) ) ;
#314 = ORIENTED_EDGE ( 'NONE', *, *, #165, .T. ) ;
#315 = VECTOR ( 'NONE', #56, 1000.000000000000100 ) ;
#316 = ORIENTED_EDGE ( 'NONE', *, *, #7, .T. ) ;
#317 = DIRECTION ( 'NONE',  ( 0.0000000000000000000, 1.000000000000000000, -0.0000000000000000000 ) ) ;
#318 = DIRECTION ( 'NONE',  ( 1.000000000000000000, 0.0000000000000000000, 0.0000000000000000000 ) ) ;
#319 =( GEOMETRIC_REPRESENTATION_CONTEXT ( 3 ) GLOBAL_UNCERTAINTY_ASSIGNED_CONTEXT ( ( #19 ) ) GLOBAL_UNIT_ASSIGNED_CONTEXT ( ( #70, #298, #225 ) ) REPRESENTATION_CONTEXT ( 'NONE', 'WORKASPACE' ) );
#320 = LINE ( 'NONE', #96, #94 ) ;
#321 = VECTOR ( 'NONE', #10, 1000.000000000000000 ) ;
ENDSEC;
END-ISO-10303-21;
