ISO-10303-21;
HEADER;
FILE_DESCRIPTION (( 'STEP AP203' ),
    '1' );
FILE_NAME ('12647-E0W.STEP',
    '2019-07-16T13:04:31',
    ( '' ),
    ( '' ),
    'SwSTEP 2.0',
    'SolidWorks 2018',
    '' );
FILE_SCHEMA (( 'CONFIG_CONTROL_DESIGN' ));
ENDSEC;

DATA;
#1 = AXIS2_PLACEMENT_3D ( 'NONE', #162, #30, #240 ) ;
#2 = DATE_TIME_ROLE ( 'creation_date' ) ;
#3 = SPHERICAL_SURFACE ( 'NONE', #121, 40.00000000000000000 ) ;
#4 = PERSON_AND_ORGANIZATION_ROLE ( 'design_supplier' ) ;
#5 = ORIENTED_EDGE ( 'NONE', *, *, #76, .F. ) ;
#6 = APPROVAL ( #153, 'UNSPECIFIED' ) ;
#7 = APPROVAL_PERSON_ORGANIZATION ( #216, #6, #94 ) ;
#8 = EDGE_CURVE ( 'NONE', #150, #110, #224, .T. ) ;
#9 = CIRCLE ( 'NONE', #82, 25.00000000000000000 ) ;
#10 = ORIENTED_EDGE ( 'NONE', *, *, #255, .F. ) ;
#11 = PRODUCT_RELATED_PRODUCT_CATEGORY ( 'detail', '', ( #199 ) ) ;
#12 = CARTESIAN_POINT ( 'NONE',  ( 0.0000000000000000000, 1.265630666675427062E-15, -6.889999999999999680 ) ) ;
#13 = FACE_OUTER_BOUND ( 'NONE', #235, .T. ) ;
#14 = DIRECTION ( 'NONE',  ( 1.000000000000000000, -0.0000000000000000000, 0.0000000000000000000 ) ) ;
#15 = AXIS2_PLACEMENT_3D ( 'NONE', #12, #103, #260 ) ;
#16 = CARTESIAN_POINT ( 'NONE',  ( -24.75000000000000000, 4.311939579554468408E-15, -6.889999999999999680 ) ) ;
#17 = DIRECTION ( 'NONE',  ( 0.0000000000000000000, -1.000000000000000000, 0.0000000000000000000 ) ) ;
#18 = CIRCLE ( 'NONE', #211, 25.00000000000000000 ) ;
#19 = PERSON ( 'UNSPECIFIED', 'UNSPECIFIED', 'UNSPECIFIED', ('UNSPECIFIED'), ('UNSPECIFIED'), ('UNSPECIFIED') ) ;
#20 = DIRECTION ( 'NONE',  ( -1.224646799147353207E-16, -1.000000000000000000, 0.0000000000000000000 ) ) ;
#21 = CYLINDRICAL_SURFACE ( 'NONE', #46, 25.00000000000000000 ) ;
#22 = EDGE_LOOP ( 'NONE', ( #40, #129 ) ) ;
#23 = ORIENTED_EDGE ( 'NONE', *, *, #8, .F. ) ;
#24 =( LENGTH_UNIT ( ) NAMED_UNIT ( * ) SI_UNIT ( .MILLI., .METRE. ) );
#25 = ADVANCED_FACE ( 'NONE', ( #198 ), #134, .T. ) ;
#26 = CC_DESIGN_APPROVAL ( #248, ( #193 ) ) ;
#27 = ORIENTED_EDGE ( 'NONE', *, *, #123, .F. ) ;
#28 = LINE ( 'NONE', #105, #98 ) ;
#29 = AXIS2_PLACEMENT_3D ( 'NONE', #270, #264, #72 ) ;
#30 = DIRECTION ( 'NONE',  ( 0.0000000000000000000, 1.397626955288269966E-32, -1.000000000000000000 ) ) ;
#31 = CC_DESIGN_PERSON_AND_ORGANIZATION_ASSIGNMENT ( #213, #246, ( #193 ) ) ;
#32 = DIRECTION ( 'NONE',  ( 0.0000000000000000000, -1.000000000000000000, -1.397626955288269966E-32 ) ) ;
#33 = EDGE_CURVE ( 'NONE', #263, #209, #156, .T. ) ;
#34 = DIRECTION ( 'NONE',  ( 0.0000000000000000000, 1.000000000000000000, 0.0000000000000000000 ) ) ;
#35 = MANIFOLD_SOLID_BREP ( '12647-001-1-solid1', #205 ) ;
#36 = VERTEX_POINT ( 'NONE', #104 ) ;
#37 = DIRECTION ( 'NONE',  ( 0.7071067811865426878, 0.0000000000000000000, 0.7071067811865524577 ) ) ;
#38 = ORIENTED_EDGE ( 'NONE', *, *, #69, .F. ) ;
#39 = DIRECTION ( 'NONE',  ( 1.000000000000000000, 0.0000000000000000000, 0.0000000000000000000 ) ) ;
#40 = ORIENTED_EDGE ( 'NONE', *, *, #146, .T. ) ;
#41 = CARTESIAN_POINT ( 'NONE',  ( 0.0000000000000000000, 1.265630666675427062E-15, -6.639999999999996128 ) ) ;
#42 = COORDINATED_UNIVERSAL_TIME_OFFSET ( 5, 0, .BEHIND. ) ;
#43 = EDGE_CURVE ( 'NONE', #209, #62, #113, .T. ) ;
#44 = COORDINATED_UNIVERSAL_TIME_OFFSET ( 5, 0, .BEHIND. ) ;
#45 = MECHANICAL_CONTEXT ( 'NONE', #226, 'mechanical' ) ;
#46 = AXIS2_PLACEMENT_3D ( 'NONE', #188, #262, #70 ) ;
#47 = APPLICATION_PROTOCOL_DEFINITION ( 'international standard', 'config_control_design', 1994, #97 ) ;
#48 = ORIENTED_EDGE ( 'NONE', *, *, #152, .F. ) ;
#49 = PRODUCT_DEFINITION_SHAPE ( 'NONE', 'NONE',  #164 ) ;
#50 = EDGE_LOOP ( 'NONE', ( #100, #73, #56, #101, #202 ) ) ;
#51 = DIRECTION ( 'NONE',  ( 0.0000000000000000000, 0.0000000000000000000, 1.000000000000000000 ) ) ;
#52 = LOCAL_TIME ( 9, 4, 31.00000000000000000, #203 ) ;
#53 = LOCAL_TIME ( 9, 4, 31.00000000000000000, #106 ) ;
#54 = CC_DESIGN_APPROVAL ( #6, ( #64 ) ) ;
#55 = EDGE_LOOP ( 'NONE', ( #48, #210, #181 ) ) ;
#56 = ORIENTED_EDGE ( 'NONE', *, *, #8, .T. ) ;
#57 = VERTEX_POINT ( 'NONE', #16 ) ;
#58 = CIRCLE ( 'NONE', #78, 40.00000000000000000 ) ;
#59 = FACE_OUTER_BOUND ( 'NONE', #86, .T. ) ;
#60 = EDGE_CURVE ( 'NONE', #209, #36, #18, .T. ) ;
#61 = DIRECTION ( 'NONE',  ( 0.0000000000000000000, 0.0000000000000000000, -1.000000000000000000 ) ) ;
#62 = VERTEX_POINT ( 'NONE', #239 ) ;
#63 = ORIENTED_EDGE ( 'NONE', *, *, #255, .T. ) ;
#64 = SECURITY_CLASSIFICATION ( '', '', #170 ) ;
#65 = DIRECTION ( 'NONE',  ( -1.000000000000000000, 1.224646799147353207E-16, 1.711599377195840812E-48 ) ) ;
#66 = DIRECTION ( 'NONE',  ( 1.000000000000000000, 0.0000000000000000000, 0.0000000000000000000 ) ) ;
#67 = DIRECTION ( 'NONE',  ( 1.000000000000000000, 0.0000000000000000000, 0.0000000000000000000 ) ) ;
#68 = DIRECTION ( 'NONE',  ( 1.000000000000000000, 0.0000000000000000000, 0.0000000000000000000 ) ) ;
#69 = EDGE_CURVE ( 'NONE', #155, #261, #173, .T. ) ;
#70 = DIRECTION ( 'NONE',  ( 0.0000000000000000000, -1.000000000000000000, 0.0000000000000000000 ) ) ;
#71 = ORIENTED_EDGE ( 'NONE', *, *, #152, .T. ) ;
#72 = DIRECTION ( 'NONE',  ( 1.000000000000000000, 0.0000000000000000000, 0.0000000000000000000 ) ) ;
#73 = ORIENTED_EDGE ( 'NONE', *, *, #234, .T. ) ;
#74 = CC_DESIGN_PERSON_AND_ORGANIZATION_ASSIGNMENT ( #233, #132, ( #199 ) ) ;
#75 = APPROVAL_DATE_TIME ( #151, #161 ) ;
#76 = EDGE_CURVE ( 'NONE', #110, #36, #28, .T. ) ;
#77 = EDGE_LOOP ( 'NONE', ( #10, #175, #254, #189, #23 ) ) ;
#78 = AXIS2_PLACEMENT_3D ( 'NONE', #145, #65, #20 ) ;
#79 = ORIENTED_EDGE ( 'NONE', *, *, #85, .T. ) ;
#80 = ORGANIZATION ( 'UNSPECIFIED', 'UNSPECIFIED', '' ) ;
#81 = PERSON_AND_ORGANIZATION ( #19, #80 ) ;
#82 = AXIS2_PLACEMENT_3D ( 'NONE', #168, #268, #149 ) ;
#83 = FACE_OUTER_BOUND ( 'NONE', #124, .T. ) ;
#84 = CARTESIAN_POINT ( 'NONE',  ( 0.0000000000000000000, -25.00000000000000000, -6.639999999999996128 ) ) ;
#85 = EDGE_CURVE ( 'NONE', #110, #261, #176, .T. ) ;
#86 = EDGE_LOOP ( 'NONE', ( #79, #160, #191, #125, #5 ) ) ;
#87 = CARTESIAN_POINT ( 'NONE',  ( 0.0000000000000000000, 0.0000000000000000000, -33.10999999999999943 ) ) ;
#88 = ADVANCED_FACE ( 'NONE', ( #236 ), #217, .F. ) ;
#89 = DATE_AND_TIME ( #237, #52 ) ;
#90 = CARTESIAN_POINT ( 'NONE',  ( 24.75000000000000000, 1.265630666675427062E-15, -6.889999999999999680 ) ) ;
#91 = DIRECTION ( 'NONE',  ( -1.000000000000000000, 0.0000000000000000000, 0.0000000000000000000 ) ) ;
#92 = DIRECTION ( 'NONE',  ( -0.0000000000000000000, -0.0000000000000000000, 1.000000000000000000 ) ) ;
#93 = CARTESIAN_POINT ( 'NONE',  ( -25.00000000000000000, 4.327247664543810302E-15, -6.639999999999996128 ) ) ;
#94 = APPROVAL_ROLE ( '' ) ;
#95 = LOCAL_TIME ( 9, 4, 31.00000000000000000, #42 ) ;
#96 = AXIS2_PLACEMENT_3D ( 'NONE', #142, #139, #218 ) ;
#97 = APPLICATION_CONTEXT ( 'configuration controlled 3d designs of mechanical parts and assemblies' ) ;
#98 = VECTOR ( 'NONE', #197, 1000.000000000000000 ) ;
#99 = APPROVAL_DATE_TIME ( #271, #6 ) ;
#100 = ORIENTED_EDGE ( 'NONE', *, *, #33, .F. ) ;
#101 = ORIENTED_EDGE ( 'NONE', *, *, #76, .T. ) ;
#102 = FACE_OUTER_BOUND ( 'NONE', #55, .T. ) ;
#103 = DIRECTION ( 'NONE',  ( 0.0000000000000000000, 1.397626955288269966E-32, -1.000000000000000000 ) ) ;
#104 = CARTESIAN_POINT ( 'NONE',  ( -3.061616997868383043E-15, -25.00000000000000000, -1.885010008008012550 ) ) ;
#105 = CARTESIAN_POINT ( 'NONE',  ( 0.0000000000000000000, -25.00000000000000000, 6.889999999999999680 ) ) ;
#106 = COORDINATED_UNIVERSAL_TIME_OFFSET ( 5, 0, .BEHIND. ) ;
#107 = CALENDAR_DATE ( 2019, 16, 7 ) ;
#108 = CONICAL_SURFACE ( 'NONE', #118, 25.00000000000000000, 0.7853981633974415066 ) ;
#109 = DATE_TIME_ROLE ( 'classification_date' ) ;
#110 = VERTEX_POINT ( 'NONE', #84 ) ;
#111 = APPROVAL_STATUS ( 'not_yet_approved' ) ;
#112 = ADVANCED_FACE ( 'NONE', ( #102 ), #187, .T. ) ;
#113 = CIRCLE ( 'NONE', #252, 40.00000000000000711 ) ;
#114 = APPROVAL_ROLE ( '' ) ;
#115 = CALENDAR_DATE ( 2019, 16, 7 ) ;
#116 = DATE_AND_TIME ( #107, #119 ) ;
#117 = ORIENTED_EDGE ( 'NONE', *, *, #234, .F. ) ;
#118 = AXIS2_PLACEMENT_3D ( 'NONE', #41, #92, #67 ) ;
#119 = LOCAL_TIME ( 9, 4, 31.00000000000000000, #223 ) ;
#120 = CARTESIAN_POINT ( 'NONE',  ( 0.0000000000000000000, 1.265630666675426865E-15, 6.889999999999999680 ) ) ;
#121 = AXIS2_PLACEMENT_3D ( 'NONE', #128, #91, #244 ) ;
#122 = VECTOR ( 'NONE', #130, 1000.000000000000000 ) ;
#123 = EDGE_CURVE ( 'NONE', #57, #155, #265, .T. ) ;
#124 = EDGE_LOOP ( 'NONE', ( #177, #71, #148 ) ) ;
#125 = ORIENTED_EDGE ( 'NONE', *, *, #222, .F. ) ;
#126 = CC_DESIGN_PERSON_AND_ORGANIZATION_ASSIGNMENT ( #81, #4, ( #193 ) ) ;
#127 = PERSON_AND_ORGANIZATION ( #19, #80 ) ;
#128 = CARTESIAN_POINT ( 'NONE',  ( 0.0000000000000000000, 0.0000000000000000000, -33.10999999999999943 ) ) ;
#129 = ORIENTED_EDGE ( 'NONE', *, *, #123, .T. ) ;
#130 = DIRECTION ( 'NONE',  ( -0.7071067811865426878, 8.659560562354874926E-17, 0.7071067811865524577 ) ) ;
#131 = CIRCLE ( 'NONE', #143, 25.00000000000000000 ) ;
#132 = PERSON_AND_ORGANIZATION_ROLE ( 'design_owner' ) ;
#133 = PERSON_AND_ORGANIZATION_ROLE ( 'creator' ) ;
#134 = CYLINDRICAL_SURFACE ( 'NONE', #231, 25.00000000000000000 ) ;
#135 = CC_DESIGN_DATE_AND_TIME_ASSIGNMENT ( #116, #2, ( #164 ) ) ;
#136 = SHAPE_DEFINITION_REPRESENTATION ( #49, #159 ) ;
#137 = AXIS2_PLACEMENT_3D ( 'NONE', #163, #257, #32 ) ;
#138 = CALENDAR_DATE ( 2019, 16, 7 ) ;
#139 = DIRECTION ( 'NONE',  ( -0.0000000000000000000, -0.0000000000000000000, 1.000000000000000000 ) ) ;
#140 = DIRECTION ( 'NONE',  ( 1.000000000000000000, 0.0000000000000000000, 0.0000000000000000000 ) ) ;
#141 = CARTESIAN_POINT ( 'NONE',  ( 3.061616997868383043E-15, 25.00000000000000000, 6.889999999999999680 ) ) ;
#142 = CARTESIAN_POINT ( 'NONE',  ( 0.0000000000000000000, 1.265630666675427062E-15, -6.639999999999996128 ) ) ;
#143 = AXIS2_PLACEMENT_3D ( 'NONE', #147, #144, #66 ) ;
#144 = DIRECTION ( 'NONE',  ( -0.0000000000000000000, -0.0000000000000000000, 1.000000000000000000 ) ) ;
#145 = CARTESIAN_POINT ( 'NONE',  ( 0.0000000000000000000, 0.0000000000000000000, -33.10999999999999943 ) ) ;
#146 = EDGE_CURVE ( 'NONE', #155, #57, #194, .T. ) ;
#147 = CARTESIAN_POINT ( 'NONE',  ( 0.0000000000000000000, 1.265630666675427062E-15, -6.639999999999996128 ) ) ;
#148 = ORIENTED_EDGE ( 'NONE', *, *, #43, .F. ) ;
#149 = DIRECTION ( 'NONE',  ( 0.0000000000000000000, -1.000000000000000000, 0.0000000000000000000 ) ) ;
#150 = VERTEX_POINT ( 'NONE', #196 ) ;
#151 = DATE_AND_TIME ( #251, #195 ) ;
#152 = EDGE_CURVE ( 'NONE', #36, #62, #58, .T. ) ;
#153 = APPROVAL_STATUS ( 'not_yet_approved' ) ;
#154 = ADVANCED_FACE ( 'NONE', ( #13 ), #180, .T. ) ;
#155 = VERTEX_POINT ( 'NONE', #90 ) ;
#156 = LINE ( 'NONE', #141, #167 ) ;
#157 =( NAMED_UNIT ( * ) SI_UNIT ( $, .STERADIAN. ) SOLID_ANGLE_UNIT ( ) );
#158 = CARTESIAN_POINT ( 'NONE',  ( 25.00000000000000000, 1.265630666675427062E-15, -6.639999999999996128 ) ) ;
#159 = ADVANCED_BREP_SHAPE_REPRESENTATION ( '12647-E0W', ( #35, #221 ), #185 ) ;
#160 = ORIENTED_EDGE ( 'NONE', *, *, #171, .T. ) ;
#161 = APPROVAL ( #111, 'UNSPECIFIED' ) ;
#162 = CARTESIAN_POINT ( 'NONE',  ( 0.0000000000000000000, 1.265630666675427062E-15, -6.889999999999999680 ) ) ;
#163 = CARTESIAN_POINT ( 'NONE',  ( 0.0000000000000000000, 1.265630666675427062E-15, -6.889999999999999680 ) ) ;
#164 = PRODUCT_DEFINITION ( 'UNKNOWN', '', #193, #259 ) ;
#165 = DIRECTION ( 'NONE',  ( -0.0000000000000000000, -0.0000000000000000000, 1.000000000000000000 ) ) ;
#166 = APPROVAL_DATE_TIME ( #172, #248 ) ;
#167 = VECTOR ( 'NONE', #179, 1000.000000000000000 ) ;
#168 = CARTESIAN_POINT ( 'NONE',  ( 0.0000000000000000000, 1.265630666675427062E-15, -1.885010008008011217 ) ) ;
#169 = CC_DESIGN_APPROVAL ( #161, ( #164 ) ) ;
#170 = SECURITY_CLASSIFICATION_LEVEL ( 'unclassified' ) ;
#171 = EDGE_CURVE ( 'NONE', #261, #263, #131, .T. ) ;
#172 = DATE_AND_TIME ( #115, #53 ) ;
#173 = LINE ( 'NONE', #215, #256 ) ;
#174 = AXIS2_PLACEMENT_3D ( 'NONE', #184, #220, #39 ) ;
#175 = ORIENTED_EDGE ( 'NONE', *, *, #146, .F. ) ;
#176 = CIRCLE ( 'NONE', #243, 25.00000000000000000 ) ;
#177 = ORIENTED_EDGE ( 'NONE', *, *, #60, .T. ) ;
#178 = DIRECTION ( 'NONE',  ( 0.0000000000000000000, -1.000000000000000000, 0.0000000000000000000 ) ) ;
#179 = DIRECTION ( 'NONE',  ( -0.0000000000000000000, -1.397626955288269966E-32, 1.000000000000000000 ) ) ;
#180 = CONICAL_SURFACE ( 'NONE', #96, 25.00000000000000000, 0.7853981633974415066 ) ;
#181 = ORIENTED_EDGE ( 'NONE', *, *, #43, .T. ) ;
#182 = DIRECTION ( 'NONE',  ( -0.0000000000000000000, -1.397626955288269966E-32, 1.000000000000000000 ) ) ;
#183 = PERSON_AND_ORGANIZATION ( #19, #80 ) ;
#184 = CARTESIAN_POINT ( 'NONE',  ( 0.0000000000000000000, 1.265630666675427062E-15, -6.639999999999996128 ) ) ;
#185 =( GEOMETRIC_REPRESENTATION_CONTEXT ( 3 ) GLOBAL_UNCERTAINTY_ASSIGNED_CONTEXT ( ( #192 ) ) GLOBAL_UNIT_ASSIGNED_CONTEXT ( ( #24, #230, #157 ) ) REPRESENTATION_CONTEXT ( 'NONE', 'WORKASPACE' ) );
#186 = ADVANCED_FACE ( 'NONE', ( #83 ), #3, .T. ) ;
#187 = SPHERICAL_SURFACE ( 'NONE', #208, 40.00000000000000000 ) ;
#188 = CARTESIAN_POINT ( 'NONE',  ( 0.0000000000000000000, 1.265630666675426865E-15, 6.889999999999999680 ) ) ;
#189 = ORIENTED_EDGE ( 'NONE', *, *, #85, .F. ) ;
#190 = APPROVAL_STATUS ( 'not_yet_approved' ) ;
#191 = ORIENTED_EDGE ( 'NONE', *, *, #33, .T. ) ;
#192 = UNCERTAINTY_MEASURE_WITH_UNIT (LENGTH_MEASURE( 1.000000000000000082E-05 ), #24, 'distance_accuracy_value', 'NONE');
#193 = PRODUCT_DEFINITION_FORMATION_WITH_SPECIFIED_SOURCE ( 'ANY', '', #199, .NOT_KNOWN. ) ;
#194 = CIRCLE ( 'NONE', #15, 24.75000000000000000 ) ;
#195 = LOCAL_TIME ( 9, 4, 31.00000000000000000, #44 ) ;
#196 = CARTESIAN_POINT ( 'NONE',  ( -25.00000000000000000, 4.327247664543810302E-15, -6.639999999999996128 ) ) ;
#197 = DIRECTION ( 'NONE',  ( -0.0000000000000000000, -1.397626955288269966E-32, 1.000000000000000000 ) ) ;
#198 = FACE_OUTER_BOUND ( 'NONE', #50, .T. ) ;
#199 = PRODUCT ( '12647-E0W', '12647-E0W', '', ( #45 ) ) ;
#200 = CC_DESIGN_PERSON_AND_ORGANIZATION_ASSIGNMENT ( #204, #201, ( #64 ) ) ;
#201 = PERSON_AND_ORGANIZATION_ROLE ( 'classification_officer' ) ;
#202 = ORIENTED_EDGE ( 'NONE', *, *, #60, .F. ) ;
#203 = COORDINATED_UNIVERSAL_TIME_OFFSET ( 5, 0, .BEHIND. ) ;
#204 = PERSON_AND_ORGANIZATION ( #19, #80 ) ;
#205 = CLOSED_SHELL ( 'NONE', ( #154, #267, #186, #112, #25, #88, #229 ) ) ;
#206 = CC_DESIGN_DATE_AND_TIME_ASSIGNMENT ( #89, #109, ( #64 ) ) ;
#207 = LINE ( 'NONE', #93, #122 ) ;
#208 = AXIS2_PLACEMENT_3D ( 'NONE', #219, #238, #34 ) ;
#209 = VERTEX_POINT ( 'NONE', #225 ) ;
#210 = ORIENTED_EDGE ( 'NONE', *, *, #222, .T. ) ;
#211 = AXIS2_PLACEMENT_3D ( 'NONE', #241, #242, #178 ) ;
#212 = CARTESIAN_POINT ( 'NONE',  ( 3.061616997868383043E-15, 25.00000000000000000, -6.639999999999996128 ) ) ;
#213 = PERSON_AND_ORGANIZATION ( #19, #80 ) ;
#214 = CC_DESIGN_PERSON_AND_ORGANIZATION_ASSIGNMENT ( #183, #133, ( #164 ) ) ;
#215 = CARTESIAN_POINT ( 'NONE',  ( 25.00000000000000000, 1.265630666675427062E-15, -6.639999999999996128 ) ) ;
#216 = PERSON_AND_ORGANIZATION ( #19, #80 ) ;
#217 = PLANE ( 'NONE',  #137 ) ;
#218 = DIRECTION ( 'NONE',  ( 1.000000000000000000, 0.0000000000000000000, 0.0000000000000000000 ) ) ;
#219 = CARTESIAN_POINT ( 'NONE',  ( 0.0000000000000000000, 0.0000000000000000000, -33.10999999999999943 ) ) ;
#220 = DIRECTION ( 'NONE',  ( -0.0000000000000000000, -0.0000000000000000000, 1.000000000000000000 ) ) ;
#221 = AXIS2_PLACEMENT_3D ( 'NONE', #232, #51, #68 ) ;
#222 = EDGE_CURVE ( 'NONE', #36, #209, #9, .T. ) ;
#223 = COORDINATED_UNIVERSAL_TIME_OFFSET ( 5, 0, .BEHIND. ) ;
#224 = CIRCLE ( 'NONE', #174, 25.00000000000000000 ) ;
#225 = CARTESIAN_POINT ( 'NONE',  ( 0.0000000000000000000, 25.00000000000000000, -1.885010008008012550 ) ) ;
#226 = APPLICATION_CONTEXT ( 'configuration controlled 3d designs of mechanical parts and assemblies' ) ;
#227 = APPROVAL_ROLE ( '' ) ;
#228 = APPROVAL_PERSON_ORGANIZATION ( #127, #161, #227 ) ;
#229 = ADVANCED_FACE ( 'NONE', ( #247 ), #108, .T. ) ;
#230 =( NAMED_UNIT ( * ) PLANE_ANGLE_UNIT ( ) SI_UNIT ( $, .RADIAN. ) );
#231 = AXIS2_PLACEMENT_3D ( 'NONE', #120, #182, #17 ) ;
#232 = CARTESIAN_POINT ( 'NONE',  ( 0.0000000000000000000, 0.0000000000000000000, 0.0000000000000000000 ) ) ;
#233 = PERSON_AND_ORGANIZATION ( #19, #80 ) ;
#234 = EDGE_CURVE ( 'NONE', #263, #150, #253, .T. ) ;
#235 = EDGE_LOOP ( 'NONE', ( #27, #63, #117, #245, #38 ) ) ;
#236 = FACE_OUTER_BOUND ( 'NONE', #22, .T. ) ;
#237 = CALENDAR_DATE ( 2019, 16, 7 ) ;
#238 = DIRECTION ( 'NONE',  ( -1.000000000000000000, 0.0000000000000000000, 0.0000000000000000000 ) ) ;
#239 = CARTESIAN_POINT ( 'NONE',  ( 0.0000000000000000000, 2.449293598294706119E-15, 6.890000000000000568 ) ) ;
#240 = DIRECTION ( 'NONE',  ( 0.0000000000000000000, -1.000000000000000000, 0.0000000000000000000 ) ) ;
#241 = CARTESIAN_POINT ( 'NONE',  ( 0.0000000000000000000, 1.265630666675427062E-15, -1.885010008008011217 ) ) ;
#242 = DIRECTION ( 'NONE',  ( -0.0000000000000000000, -1.397626955288269966E-32, 1.000000000000000000 ) ) ;
#243 = AXIS2_PLACEMENT_3D ( 'NONE', #258, #165, #140 ) ;
#244 = DIRECTION ( 'NONE',  ( 0.0000000000000000000, 1.000000000000000000, 0.0000000000000000000 ) ) ;
#245 = ORIENTED_EDGE ( 'NONE', *, *, #171, .F. ) ;
#246 = PERSON_AND_ORGANIZATION_ROLE ( 'creator' ) ;
#247 = FACE_OUTER_BOUND ( 'NONE', #77, .T. ) ;
#248 = APPROVAL ( #190, 'UNSPECIFIED' ) ;
#249 = APPLICATION_PROTOCOL_DEFINITION ( 'international standard', 'config_control_design', 1994, #226 ) ;
#251 = CALENDAR_DATE ( 2019, 16, 7 ) ;
#250 = APPROVAL_PERSON_ORGANIZATION ( #269, #248, #114 ) ;
#252 = AXIS2_PLACEMENT_3D ( 'NONE', #87, #14, #61 ) ;
#253 = CIRCLE ( 'NONE', #29, 25.00000000000000000 ) ;
#254 = ORIENTED_EDGE ( 'NONE', *, *, #69, .T. ) ;
#255 = EDGE_CURVE ( 'NONE', #57, #150, #207, .T. ) ;
#256 = VECTOR ( 'NONE', #37, 1000.000000000000000 ) ;
#257 = DIRECTION ( 'NONE',  ( 0.0000000000000000000, -1.397626955288269966E-32, 1.000000000000000000 ) ) ;
#258 = CARTESIAN_POINT ( 'NONE',  ( 0.0000000000000000000, 1.265630666675427062E-15, -6.639999999999996128 ) ) ;
#259 = DESIGN_CONTEXT ( 'detailed design', #97, 'design' ) ;
#260 = DIRECTION ( 'NONE',  ( 0.0000000000000000000, -1.000000000000000000, 0.0000000000000000000 ) ) ;
#261 = VERTEX_POINT ( 'NONE', #158 ) ;
#262 = DIRECTION ( 'NONE',  ( -0.0000000000000000000, -1.397626955288269966E-32, 1.000000000000000000 ) ) ;
#263 = VERTEX_POINT ( 'NONE', #212 ) ;
#264 = DIRECTION ( 'NONE',  ( -0.0000000000000000000, -0.0000000000000000000, 1.000000000000000000 ) ) ;
#265 = CIRCLE ( 'NONE', #1, 24.75000000000000000 ) ;
#266 = CC_DESIGN_SECURITY_CLASSIFICATION ( #64, ( #193 ) ) ;
#267 = ADVANCED_FACE ( 'NONE', ( #59 ), #21, .T. ) ;
#268 = DIRECTION ( 'NONE',  ( -0.0000000000000000000, -1.397626955288269966E-32, 1.000000000000000000 ) ) ;
#269 = PERSON_AND_ORGANIZATION ( #19, #80 ) ;
#270 = CARTESIAN_POINT ( 'NONE',  ( 0.0000000000000000000, 1.265630666675427062E-15, -6.639999999999996128 ) ) ;
#271 = DATE_AND_TIME ( #138, #95 ) ;
ENDSEC;
END-ISO-10303-21;
