ISO-10303-21;
HEADER;
FILE_DESCRIPTION (( 'STEP AP203' ),
    '1' );
FILE_NAME ('4934-E0W.STEP',
    '2015-07-13T15:21:58',
    ( 'admin' ),
    ( '' ),
    'SwSTEP 2.0',
    'SolidWorks 2014',
    '' );
FILE_SCHEMA (( 'CONFIG_CONTROL_DESIGN' ));
ENDSEC;

DATA;
#1 = VERTEX_POINT ( 'NONE', #89 ) ;
#2 = ORIENTED_EDGE ( 'NONE', *, *, #321, .T. ) ;
#3 = EDGE_CURVE ( 'NONE', #45, #82, #59, .T. ) ;
#4 = CARTESIAN_POINT ( 'NONE',  ( 0.0000000000000000000, 0.0000000000000000000, -0.1149867799113552000 ) ) ;
#5 = CARTESIAN_POINT ( 'NONE',  ( 0.0000000000000000000, 0.0000000000000000000, -0.1149867799113690700 ) ) ;
#6 = CARTESIAN_POINT ( 'NONE',  ( 0.0000000000000000000, 0.0000000000000000000, 0.0000000000000000000 ) ) ;
#7 = SECURITY_CLASSIFICATION_LEVEL ( 'unclassified' ) ;
#8 = CARTESIAN_POINT ( 'NONE',  ( 0.0000000000000000000, -25.15065710651502000, -3.183432831272044300 ) ) ;
#9 = DIRECTION ( 'NONE',  ( 0.0000000000000000000, 0.0000000000000000000, -1.000000000000000000 ) ) ;
#10 = CALENDAR_DATE ( 2015, 13, 7 ) ;
#11 = AXIS2_PLACEMENT_3D ( 'NONE', #6, #215, #36 ) ;
#12 = APPROVAL_PERSON_ORGANIZATION ( #44, #68, #122 ) ;
#13 = COORDINATED_UNIVERSAL_TIME_OFFSET ( 5, 0, .BEHIND. ) ;
#14 = DIRECTION ( 'NONE',  ( 0.0000000000000000000, 0.0000000000000000000, 1.000000000000000000 ) ) ;
#15 = PERSON_AND_ORGANIZATION ( #165, #249 ) ;
#16 = AXIS2_PLACEMENT_3D ( 'NONE', #263, #339, #147 ) ;
#17 = CALENDAR_DATE ( 2015, 13, 7 ) ;
#18 = ORIENTED_EDGE ( 'NONE', *, *, #125, .T. ) ;
#19 = PERSON_AND_ORGANIZATION ( #165, #249 ) ;
#20 = CARTESIAN_POINT ( 'NONE',  ( 0.0000000000000000000, 0.0000000000000000000, -3.183432831272051000 ) ) ;
#21 = DIRECTION ( 'NONE',  ( -1.224646799147353200E-016, -1.000000000000000000, 0.0000000000000000000 ) ) ;
#22 = DIRECTION ( 'NONE',  ( 0.0000000000000000000, 0.0000000000000000000, -1.000000000000000000 ) ) ;
#23 = APPROVAL_PERSON_ORGANIZATION ( #15, #168, #183 ) ;
#24 = ORIENTED_EDGE ( 'NONE', *, *, #80, .T. ) ;
#25 = EDGE_CURVE ( 'NONE', #1, #179, #331, .T. ) ;
#26 = ORIENTED_EDGE ( 'NONE', *, *, #58, .T. ) ;
#27 = CC_DESIGN_PERSON_AND_ORGANIZATION_ASSIGNMENT ( #19, #63, ( #262 ) ) ;
#28 = ORIENTED_EDGE ( 'NONE', *, *, #143, .T. ) ;
#29 = ADVANCED_FACE ( 'NONE', ( #317 ), #138, .F. ) ;
#30 = DIRECTION ( 'NONE',  ( 0.0000000000000000000, 0.0000000000000000000, -1.000000000000000000 ) ) ;
#31 = DIRECTION ( 'NONE',  ( -0.0000000000000000000, -0.0000000000000000000, 1.000000000000000000 ) ) ;
#32 = DIRECTION ( 'NONE',  ( -1.000000000000000000, 0.0000000000000000000, 0.0000000000000000000 ) ) ;
#33 = DIRECTION ( 'NONE',  ( 1.224646799147353000E-016, 1.000000000000000000, 0.0000000000000000000 ) ) ;
#34 = DIRECTION ( 'NONE',  ( 0.0000000000000000000, 0.0000000000000000000, -1.000000000000000000 ) ) ;
#35 = DIRECTION ( 'NONE',  ( -0.0000000000000000000, -0.0000000000000000000, 1.000000000000000000 ) ) ;
#36 = DIRECTION ( 'NONE',  ( 1.000000000000000000, 0.0000000000000000000, 0.0000000000000000000 ) ) ;
#37 = ORIENTED_EDGE ( 'NONE', *, *, #25, .F. ) ;
#38 = DATE_TIME_ROLE ( 'classification_date' ) ;
#39 = CARTESIAN_POINT ( 'NONE',  ( 25.39999999999999900, 0.0000000000000000000, -2.952727902844912000 ) ) ;
#40 = AXIS2_PLACEMENT_3D ( 'NONE', #363, #198, #22 ) ;
#41 = SECURITY_CLASSIFICATION ( '', '', #7 ) ;
#42 = DIRECTION ( 'NONE',  ( 1.000000000000000000, 0.0000000000000000000, 0.0000000000000000000 ) ) ;
#43 = DIRECTION ( 'NONE',  ( -0.6081751796812665500, 0.0000000000000000000, -0.7938028412771391800 ) ) ;
#44 = PERSON_AND_ORGANIZATION ( #165, #249 ) ;
#45 = VERTEX_POINT ( 'NONE', #8 ) ;
#46 = EDGE_CURVE ( 'NONE', #107, #1, #137, .T. ) ;
#47 = CARTESIAN_POINT ( 'NONE',  ( 25.39999999999999900, 0.0000000000000000000, -0.4296317346848682600 ) ) ;
#48 = PRODUCT_DEFINITION ( 'UNKNOWN', '', #141, #294 ) ;
#49 = ORIENTED_EDGE ( 'NONE', *, *, #80, .F. ) ;
#50 = CALENDAR_DATE ( 2015, 13, 7 ) ;
#51 = AXIS2_PLACEMENT_3D ( 'NONE', #283, #71, #130 ) ;
#52 = CC_DESIGN_PERSON_AND_ORGANIZATION_ASSIGNMENT ( #74, #216, ( #41 ) ) ;
#53 = VERTEX_POINT ( 'NONE', #358 ) ;
#54 = CONICAL_SURFACE ( 'NONE', #253, 25.39999999999999900, 0.8242038984172962400 ) ;
#55 = ADVANCED_FACE ( 'NONE', ( #342 ), #109, .T. ) ;
#56 = DIRECTION ( 'NONE',  ( 0.6081751796812665500, 7.447997871175295000E-017, -0.7938028412771391800 ) ) ;
#57 = CALENDAR_DATE ( 2015, 13, 7 ) ;
#58 = EDGE_CURVE ( 'NONE', #277, #264, #337, .T. ) ;
#59 = CIRCLE ( 'NONE', #162, 25.15065710651508400 ) ;
#60 = DIRECTION ( 'NONE',  ( 0.0000000000000000000, 0.0000000000000000000, -1.000000000000000000 ) ) ;
#61 = CARTESIAN_POINT ( 'NONE',  ( 0.0000000000000000000, 0.0000000000000000000, 3.183432831272043500 ) ) ;
#62 = DIRECTION ( 'NONE',  ( 0.0000000000000000000, 0.0000000000000000000, -1.000000000000000000 ) ) ;
#63 = PERSON_AND_ORGANIZATION_ROLE ( 'design_owner' ) ;
#64 = APPROVAL_ROLE ( '' ) ;
#65 = CARTESIAN_POINT ( 'NONE',  ( 0.0000000000000000000, 0.0000000000000000000, -2.952727902844912000 ) ) ;
#66 = CARTESIAN_POINT ( 'NONE',  ( 0.0000000000000000000, 0.0000000000000000000, -0.1149867799113690700 ) ) ;
#67 = DIRECTION ( 'NONE',  ( 1.000000000000000000, 0.0000000000000000000, 0.0000000000000000000 ) ) ;
#68 = APPROVAL ( #303, 'UNSPECIFIED' ) ;
#69 = FACE_OUTER_BOUND ( 'NONE', #341, .T. ) ;
#70 = CIRCLE ( 'NONE', #318, 25.15893352611673400 ) ;
#71 = DIRECTION ( 'NONE',  ( -0.0000000000000000000, -0.0000000000000000000, 1.000000000000000000 ) ) ;
#72 = AXIS2_PLACEMENT_3D ( 'NONE', #209, #31, #240 ) ;
#73 = CC_DESIGN_DATE_AND_TIME_ASSIGNMENT ( #118, #38, ( #41 ) ) ;
#74 = PERSON_AND_ORGANIZATION ( #165, #249 ) ;
#75 = ORIENTED_EDGE ( 'NONE', *, *, #288, .F. ) ;
#76 = MANIFOLD_SOLID_BREP ( '4934-001-1-solid1', #259 ) ;
#77 = CARTESIAN_POINT ( 'NONE',  ( -25.39999999999999900, 3.110602869834276900E-015, -0.4296317346848682600 ) ) ;
#78 = ORIENTED_EDGE ( 'NONE', *, *, #46, .F. ) ;
#79 = CIRCLE ( 'NONE', #222, 327.6000000000000200 ) ;
#80 = EDGE_CURVE ( 'NONE', #160, #277, #166, .T. ) ;
#81 = UNCERTAINTY_MEASURE_WITH_UNIT (LENGTH_MEASURE( 1.000000000000000100E-005 ), #88, 'distance_accuracy_value', 'NONE');
#82 = VERTEX_POINT ( 'NONE', #325 ) ;
#83 = CC_DESIGN_APPROVAL ( #68, ( #48 ) ) ;
#84 = CIRCLE ( 'NONE', #40, 97.59999999999998000 ) ;
#85 = ORIENTED_EDGE ( 'NONE', *, *, #143, .F. ) ;
#86 = DIRECTION ( 'NONE',  ( 1.000000000000000000, 0.0000000000000000000, 0.0000000000000000000 ) ) ;
#87 = CARTESIAN_POINT ( 'NONE',  ( 0.0000000000000000000, 0.0000000000000000000, -0.1149867799113552000 ) ) ;
#88 =( LENGTH_UNIT ( ) NAMED_UNIT ( * ) SI_UNIT ( .MILLI., .METRE. ) );
#89 = CARTESIAN_POINT ( 'NONE',  ( -25.15893352611673400, 0.0000000000000000000, -0.1149867799113690700 ) ) ;
#90 = APPLICATION_PROTOCOL_DEFINITION ( 'international standard', 'config_control_design', 1994, #273 ) ;
#91 = CARTESIAN_POINT ( 'NONE',  ( 0.0000000000000000000, 0.0000000000000000000, -3.183432831272051000 ) ) ;
#92 = AXIS2_PLACEMENT_3D ( 'NONE', #4, #60, #270 ) ;
#93 = DIRECTION ( 'NONE',  ( 0.0000000000000000000, 0.0000000000000000000, -1.000000000000000000 ) ) ;
#94 = APPROVAL ( #246, 'UNSPECIFIED' ) ;
#95 = CIRCLE ( 'NONE', #153, 25.39999999999999900 ) ;
#96 = FACE_OUTER_BOUND ( 'NONE', #348, .T. ) ;
#97 = ORIENTED_EDGE ( 'NONE', *, *, #176, .T. ) ;
#98 = EDGE_CURVE ( 'NONE', #160, #296, #79, .T. ) ;
#99 = SHAPE_DEFINITION_REPRESENTATION ( #134, #104 ) ;
#100 = SPHERICAL_SURFACE ( 'NONE', #315, 327.6000000000000200 ) ;
#101 = ORIENTED_EDGE ( 'NONE', *, *, #191, .F. ) ;
#102 = DIRECTION ( 'NONE',  ( -0.0000000000000000000, -0.0000000000000000000, 1.000000000000000000 ) ) ;
#103 = DIRECTION ( 'NONE',  ( -0.7340073492593511800, 8.988997508210978000E-017, 0.6791415251869531400 ) ) ;
#104 = ADVANCED_BREP_SHAPE_REPRESENTATION ( '4934-E0W', ( #76, #11 ), #329 ) ;
#105 = CC_DESIGN_PERSON_AND_ORGANIZATION_ASSIGNMENT ( #324, #326, ( #48 ) ) ;
#106 = ORIENTED_EDGE ( 'NONE', *, *, #308, .T. ) ;
#107 = VERTEX_POINT ( 'NONE', #152 ) ;
#108 = ORIENTED_EDGE ( 'NONE', *, *, #136, .F. ) ;
#109 = CYLINDRICAL_SURFACE ( 'NONE', #256, 25.39999999999999900 ) ;
#110 = AXIS2_PLACEMENT_3D ( 'NONE', #214, #35, #244 ) ;
#111 = CC_DESIGN_APPROVAL ( #94, ( #41 ) ) ;
#112 = DIRECTION ( 'NONE',  ( -1.000000000000000000, 0.0000000000000000000, 0.0000000000000000000 ) ) ;
#113 = ORIENTED_EDGE ( 'NONE', *, *, #340, .T. ) ;
#114 = SPHERICAL_SURFACE ( 'NONE', #334, 97.59999999999996600 ) ;
#115 = ADVANCED_FACE ( 'NONE', ( #260 ), #350, .T. ) ;
#116 = EDGE_CURVE ( 'NONE', #45, #296, #258, .T. ) ;
#117 = ORIENTED_EDGE ( 'NONE', *, *, #176, .F. ) ;
#118 = DATE_AND_TIME ( #10, #309 ) ;
#119 = CARTESIAN_POINT ( 'NONE',  ( 25.39999999999999900, 0.0000000000000000000, -2.952727902844912000 ) ) ;
#120 =( NAMED_UNIT ( * ) SI_UNIT ( $, .STERADIAN. ) SOLID_ANGLE_UNIT ( ) );
#121 = DIRECTION ( 'NONE',  ( 0.0000000000000000000, -1.000000000000000000, 0.0000000000000000000 ) ) ;
#122 = APPROVAL_ROLE ( '' ) ;
#123 = CIRCLE ( 'NONE', #171, 25.39999999999999900 ) ;
#124 = LOCAL_TIME ( 11, 21, 58.00000000000000000, #13 ) ;
#125 = EDGE_CURVE ( 'NONE', #264, #128, #346, .T. ) ;
#126 = CC_DESIGN_DATE_AND_TIME_ASSIGNMENT ( #159, #151, ( #48 ) ) ;
#127 = DATE_AND_TIME ( #194, #212 ) ;
#128 = VERTEX_POINT ( 'NONE', #47 ) ;
#129 = DIRECTION ( 'NONE',  ( -1.000000000000000000, 0.0000000000000000000, 0.0000000000000000000 ) ) ;
#130 = DIRECTION ( 'NONE',  ( 1.000000000000000000, 0.0000000000000000000, 0.0000000000000000000 ) ) ;
#131 = AXIS2_PLACEMENT_3D ( 'NONE', #87, #62, #272 ) ;
#132 = CC_DESIGN_SECURITY_CLASSIFICATION ( #41, ( #141 ) ) ;
#133 = EDGE_LOOP ( 'NONE', ( #365, #24, #2, #305 ) ) ;
#134 = PRODUCT_DEFINITION_SHAPE ( 'NONE', 'NONE',  #48 ) ;
#135 = CIRCLE ( 'NONE', #275, 25.15893352611673400 ) ;
#136 = EDGE_CURVE ( 'NONE', #140, #179, #174, .T. ) ;
#137 = CIRCLE ( 'NONE', #177, 25.15893352611673400 ) ;
#138 = SPHERICAL_SURFACE ( 'NONE', #202, 327.6000000000000200 ) ;
#139 = ORIENTED_EDGE ( 'NONE', *, *, #226, .T. ) ;
#140 = VERTEX_POINT ( 'NONE', #335 ) ;
#141 = PRODUCT_DEFINITION_FORMATION_WITH_SPECIFIED_SOURCE ( 'ANY', '', #262, .NOT_KNOWN. ) ;
#142 = ADVANCED_FACE ( 'NONE', ( #158 ), #114, .T. ) ;
#143 = EDGE_CURVE ( 'NONE', #1, #237, #70, .T. ) ;
#144 = DIRECTION ( 'NONE',  ( 1.000000000000000000, 0.0000000000000000000, 0.0000000000000000000 ) ) ;
#145 = ORIENTED_EDGE ( 'NONE', *, *, #46, .T. ) ;
#146 = PERSON_AND_ORGANIZATION ( #165, #249 ) ;
#147 = DIRECTION ( 'NONE',  ( -1.000000000000000000, 0.0000000000000000000, 0.0000000000000000000 ) ) ;
#148 = CIRCLE ( 'NONE', #16, 25.15065710651508400 ) ;
#149 = APPLICATION_PROTOCOL_DEFINITION ( 'international standard', 'config_control_design', 1994, #178 ) ;
#150 = CARTESIAN_POINT ( 'NONE',  ( 25.15065710651508400, 0.0000000000000000000, -3.183432831272051000 ) ) ;
#151 = DATE_TIME_ROLE ( 'creation_date' ) ;
#152 = CARTESIAN_POINT ( 'NONE',  ( 0.0000000000000000000, 25.15893352611676200, -0.1149867799113621400 ) ) ;
#153 = AXIS2_PLACEMENT_3D ( 'NONE', #182, #9, #218 ) ;
#154 = FACE_OUTER_BOUND ( 'NONE', #133, .T. ) ;
#155 = PRODUCT_RELATED_PRODUCT_CATEGORY ( 'detail', '', ( #262 ) ) ;
#156 = ORIENTED_EDGE ( 'NONE', *, *, #288, .T. ) ;
#157 = EDGE_LOOP ( 'NONE', ( #108, #161, #18, #156 ) ) ;
#158 = FACE_OUTER_BOUND ( 'NONE', #313, .T. ) ;
#159 = DATE_AND_TIME ( #17, #220 ) ;
#160 = VERTEX_POINT ( 'NONE', #195 ) ;
#161 = ORIENTED_EDGE ( 'NONE', *, *, #251, .T. ) ;
#162 = AXIS2_PLACEMENT_3D ( 'NONE', #91, #34, #247 ) ;
#163 = CARTESIAN_POINT ( 'NONE',  ( 0.0000000000000000000, 0.0000000000000000000, -94.41656716872790900 ) ) ;
#164 = FACE_OUTER_BOUND ( 'NONE', #347, .T. ) ;
#165 = PERSON ( 'UNSPECIFIED', 'UNSPECIFIED', 'UNSPECIFIED', ('UNSPECIFIED'), ('UNSPECIFIED'), ('UNSPECIFIED') ) ;
#166 = CIRCLE ( 'NONE', #242, 25.15065710651508400 ) ;
#167 = DIRECTION ( 'NONE',  ( 0.0000000000000000000, 1.000000000000000000, 0.0000000000000000000 ) ) ;
#168 = APPROVAL ( #356, 'UNSPECIFIED' ) ;
#169 = EDGE_CURVE ( 'NONE', #237, #265, #367, .T. ) ;
#170 = DIRECTION ( 'NONE',  ( -0.0000000000000000000, -0.0000000000000000000, 1.000000000000000000 ) ) ;
#171 = AXIS2_PLACEMENT_3D ( 'NONE', #274, #93, #304 ) ;
#172 = DIRECTION ( 'NONE',  ( -1.000000000000000000, 0.0000000000000000000, 0.0000000000000000000 ) ) ;
#173 = ADVANCED_FACE ( 'NONE', ( #295 ), #351, .T. ) ;
#174 = LINE ( 'NONE', #204, #297 ) ;
#175 = CARTESIAN_POINT ( 'NONE',  ( 25.15893352611674800, 3.081080741271990700E-015, -0.1149867799113552000 ) ) ;
#176 = EDGE_CURVE ( 'NONE', #82, #140, #236, .T. ) ;
#177 = AXIS2_PLACEMENT_3D ( 'NONE', #66, #243, #185 ) ;
#178 = APPLICATION_CONTEXT ( 'configuration controlled 3d designs of mechanical parts and assemblies' ) ;
#179 = VERTEX_POINT ( 'NONE', #77 ) ;
#180 = PERSON_AND_ORGANIZATION_ROLE ( 'design_supplier' ) ;
#181 = ORIENTED_EDGE ( 'NONE', *, *, #207, .F. ) ;
#182 = CARTESIAN_POINT ( 'NONE',  ( 0.0000000000000000000, 0.0000000000000000000, -0.4296317346848682600 ) ) ;
#183 = APPROVAL_ROLE ( '' ) ;
#184 = ORIENTED_EDGE ( 'NONE', *, *, #360, .T. ) ;
#185 = DIRECTION ( 'NONE',  ( -1.000000000000000000, 0.0000000000000000000, 0.0000000000000000000 ) ) ;
#186 = DIRECTION ( 'NONE',  ( -0.0000000000000000000, -0.0000000000000000000, 1.000000000000000000 ) ) ;
#187 = CC_DESIGN_APPROVAL ( #168, ( #141 ) ) ;
#188 = ORIENTED_EDGE ( 'NONE', *, *, #3, .F. ) ;
#189 = CIRCLE ( 'NONE', #230, 25.15065710651508400 ) ;
#190 = VECTOR ( 'NONE', #56, 1000.000000000000000 ) ;
#191 = EDGE_CURVE ( 'NONE', #107, #265, #84, .T. ) ;
#192 = DIRECTION ( 'NONE',  ( -1.000000000000000000, -0.0000000000000000000, -0.0000000000000000000 ) ) ;
#193 = DATE_AND_TIME ( #50, #279 ) ;
#194 = CALENDAR_DATE ( 2015, 13, 7 ) ;
#195 = CARTESIAN_POINT ( 'NONE',  ( 3.080067172194624900E-015, 25.15065710651502000, -3.183432831272044300 ) ) ;
#196 = DIRECTION ( 'NONE',  ( -1.000000000000000000, 1.224646799147353200E-016, 0.0000000000000000000 ) ) ;
#197 = AXIS2_PLACEMENT_3D ( 'NONE', #248, #302, #355 ) ;
#198 = DIRECTION ( 'NONE',  ( 1.000000000000000000, 0.0000000000000000000, 0.0000000000000000000 ) ) ;
#199 = ORIENTED_EDGE ( 'NONE', *, *, #125, .F. ) ;
#200 = CIRCLE ( 'NONE', #110, 25.39999999999999900 ) ;
#201 = FACE_OUTER_BOUND ( 'NONE', #228, .T. ) ;
#202 = AXIS2_PLACEMENT_3D ( 'NONE', #301, #67, #121 ) ;
#203 = APPROVAL_DATE_TIME ( #213, #168 ) ;
#204 = CARTESIAN_POINT ( 'NONE',  ( -25.39999999999999900, 3.110602869834276900E-015, 3.183432831272043500 ) ) ;
#205 = ORIENTED_EDGE ( 'NONE', *, *, #169, .T. ) ;
#206 = CC_DESIGN_PERSON_AND_ORGANIZATION_ASSIGNMENT ( #333, #224, ( #141 ) ) ;
#207 = EDGE_CURVE ( 'NONE', #82, #160, #148, .T. ) ;
#208 = CARTESIAN_POINT ( 'NONE',  ( 0.0000000000000000000, 0.0000000000000000000, -3.183432831272051000 ) ) ;
#209 = CARTESIAN_POINT ( 'NONE',  ( 0.0000000000000000000, 0.0000000000000000000, -0.1149867799113690700 ) ) ;
#210 = DIRECTION ( 'NONE',  ( -0.0000000000000000000, -0.0000000000000000000, 1.000000000000000000 ) ) ;
#211 = ORIENTED_EDGE ( 'NONE', *, *, #251, .F. ) ;
#212 = LOCAL_TIME ( 11, 21, 58.00000000000000000, #257 ) ;
#213 = DATE_AND_TIME ( #57, #124 ) ;
#214 = CARTESIAN_POINT ( 'NONE',  ( 0.0000000000000000000, 0.0000000000000000000, -2.952727902844912000 ) ) ;
#215 = DIRECTION ( 'NONE',  ( 0.0000000000000000000, 0.0000000000000000000, 1.000000000000000000 ) ) ;
#216 = PERSON_AND_ORGANIZATION_ROLE ( 'classification_officer' ) ;
#217 = CARTESIAN_POINT ( 'NONE',  ( -25.15893352611674800, 0.0000000000000000000, -0.1149867799113552000 ) ) ;
#218 = DIRECTION ( 'NONE',  ( -1.000000000000000000, 0.0000000000000000000, 0.0000000000000000000 ) ) ;
#219 = AXIS2_PLACEMENT_3D ( 'NONE', #336, #170, #144 ) ;
#220 = LOCAL_TIME ( 11, 21, 58.00000000000000000, #364 ) ;
#221 = APPROVAL_PERSON_ORGANIZATION ( #146, #94, #64 ) ;
#222 = AXIS2_PLACEMENT_3D ( 'NONE', #278, #306, #33 ) ;
#223 = CARTESIAN_POINT ( 'NONE',  ( 25.39999999999999900, 0.0000000000000000000, 3.183432831272043500 ) ) ;
#224 = PERSON_AND_ORGANIZATION_ROLE ( 'creator' ) ;
#225 = CC_DESIGN_PERSON_AND_ORGANIZATION_ASSIGNMENT ( #238, #180, ( #141 ) ) ;
#226 = EDGE_CURVE ( 'NONE', #237, #53, #227, .T. ) ;
#227 = CIRCLE ( 'NONE', #72, 25.15893352611673400 ) ;
#228 = EDGE_LOOP ( 'NONE', ( #181, #97, #250, #291, #49 ) ) ;
#229 = CONICAL_SURFACE ( 'NONE', #92, 25.15893352611674800, 0.6537597277059811200 ) ;
#230 = AXIS2_PLACEMENT_3D ( 'NONE', #208, #30, #239 ) ;
#231 = APPROVAL_DATE_TIME ( #127, #68 ) ;
#232 = CARTESIAN_POINT ( 'NONE',  ( 0.0000000000000000000, 0.0000000000000000000, -94.41656716872790900 ) ) ;
#233 = COORDINATED_UNIVERSAL_TIME_OFFSET ( 5, 0, .BEHIND. ) ;
#234 = ORIENTED_EDGE ( 'NONE', *, *, #3, .T. ) ;
#235 = ADVANCED_FACE ( 'NONE', ( #96 ), #229, .T. ) ;
#236 = LINE ( 'NONE', #285, #345 ) ;
#237 = VERTEX_POINT ( 'NONE', #298 ) ;
#238 = PERSON_AND_ORGANIZATION ( #165, #249 ) ;
#239 = DIRECTION ( 'NONE',  ( -1.000000000000000000, 0.0000000000000000000, 0.0000000000000000000 ) ) ;
#240 = DIRECTION ( 'NONE',  ( -1.000000000000000000, 0.0000000000000000000, 0.0000000000000000000 ) ) ;
#241 = DIRECTION ( 'NONE',  ( 0.0000000000000000000, -1.000000000000000000, 0.0000000000000000000 ) ) ;
#242 = AXIS2_PLACEMENT_3D ( 'NONE', #20, #254, #172 ) ;
#243 = DIRECTION ( 'NONE',  ( -0.0000000000000000000, -0.0000000000000000000, 1.000000000000000000 ) ) ;
#244 = DIRECTION ( 'NONE',  ( 1.000000000000000000, 0.0000000000000000000, 0.0000000000000000000 ) ) ;
#245 = MECHANICAL_CONTEXT ( 'NONE', #178, 'mechanical' ) ;
#246 = APPROVAL_STATUS ( 'not_yet_approved' ) ;
#247 = DIRECTION ( 'NONE',  ( -1.000000000000000000, 0.0000000000000000000, 0.0000000000000000000 ) ) ;
#248 = CARTESIAN_POINT ( 'NONE',  ( 0.0000000000000000000, 0.0000000000000000000, -2.952727902844912000 ) ) ;
#249 = ORGANIZATION ( 'UNSPECIFIED', 'UNSPECIFIED', '' ) ;
#250 = ORIENTED_EDGE ( 'NONE', *, *, #308, .F. ) ;
#251 = EDGE_CURVE ( 'NONE', #140, #264, #200, .T. ) ;
#252 = DIRECTION ( 'NONE',  ( -0.0000000000000000000, -0.0000000000000000000, 1.000000000000000000 ) ) ;
#253 = AXIS2_PLACEMENT_3D ( 'NONE', #65, #186, #86 ) ;
#254 = DIRECTION ( 'NONE',  ( 0.0000000000000000000, 0.0000000000000000000, -1.000000000000000000 ) ) ;
#255 = ORIENTED_EDGE ( 'NONE', *, *, #207, .T. ) ;
#256 = AXIS2_PLACEMENT_3D ( 'NONE', #61, #357, #42 ) ;
#257 = COORDINATED_UNIVERSAL_TIME_OFFSET ( 5, 0, .BEHIND. ) ;
#258 = CIRCLE ( 'NONE', #282, 327.6000000000000200 ) ;
#259 = CLOSED_SHELL ( 'NONE', ( #266, #349, #29, #173, #115, #142, #55, #366, #293, #235 ) ) ;
#260 = FACE_OUTER_BOUND ( 'NONE', #271, .T. ) ;
#261 = ORIENTED_EDGE ( 'NONE', *, *, #116, .F. ) ;
#262 = PRODUCT ( '4934-E0W', '4934-E0W', '', ( #245 ) ) ;
#263 = CARTESIAN_POINT ( 'NONE',  ( 0.0000000000000000000, 0.0000000000000000000, -3.183432831272051000 ) ) ;
#264 = VERTEX_POINT ( 'NONE', #119 ) ;
#265 = VERTEX_POINT ( 'NONE', #323 ) ;
#266 = ADVANCED_FACE ( 'NONE', ( #69 ), #316, .T. ) ;
#267 = EDGE_CURVE ( 'NONE', #179, #128, #95, .T. ) ;
#268 = CARTESIAN_POINT ( 'NONE',  ( 0.0000000000000000000, 0.0000000000000000000, -329.8165671687279400 ) ) ;
#269 = CARTESIAN_POINT ( 'NONE',  ( 0.0000000000000000000, 0.0000000000000000000, -329.8165671687279400 ) ) ;
#270 = DIRECTION ( 'NONE',  ( -1.000000000000000000, 0.0000000000000000000, 0.0000000000000000000 ) ) ;
#271 = EDGE_LOOP ( 'NONE', ( #145, #28, #205, #101 ) ) ;
#272 = DIRECTION ( 'NONE',  ( -1.000000000000000000, 0.0000000000000000000, 0.0000000000000000000 ) ) ;
#273 = APPLICATION_CONTEXT ( 'configuration controlled 3d designs of mechanical parts and assemblies' ) ;
#274 = CARTESIAN_POINT ( 'NONE',  ( 0.0000000000000000000, 0.0000000000000000000, -0.4296317346848682600 ) ) ;
#275 = AXIS2_PLACEMENT_3D ( 'NONE', #5, #210, #32 ) ;
#276 = ORIENTED_EDGE ( 'NONE', *, *, #98, .T. ) ;
#277 = VERTEX_POINT ( 'NONE', #150 ) ;
#278 = CARTESIAN_POINT ( 'NONE',  ( 0.0000000000000000000, 0.0000000000000000000, -329.8165671687279400 ) ) ;
#279 = LOCAL_TIME ( 11, 21, 58.00000000000000000, #287 ) ;
#280 = ORIENTED_EDGE ( 'NONE', *, *, #191, .T. ) ;
#281 = EDGE_LOOP ( 'NONE', ( #106, #286, #343, #199 ) ) ;
#282 = AXIS2_PLACEMENT_3D ( 'NONE', #269, #192, #14 ) ;
#283 = CARTESIAN_POINT ( 'NONE',  ( 0.0000000000000000000, 0.0000000000000000000, 3.183432831272043500 ) ) ;
#284 = CARTESIAN_POINT ( 'NONE',  ( 0.0000000000000000000, 0.0000000000000000000, -0.1149867799113690700 ) ) ;
#285 = CARTESIAN_POINT ( 'NONE',  ( -25.39999999999999900, 3.110602869834276900E-015, -2.952727902844912000 ) ) ;
#286 = ORIENTED_EDGE ( 'NONE', *, *, #136, .T. ) ;
#287 = COORDINATED_UNIVERSAL_TIME_OFFSET ( 5, 0, .BEHIND. ) ;
#288 = EDGE_CURVE ( 'NONE', #128, #179, #123, .T. ) ;
#289 = EDGE_LOOP ( 'NONE', ( #234, #255, #276, #261 ) ) ;
#290 = ORIENTED_EDGE ( 'NONE', *, *, #25, .T. ) ;
#291 = ORIENTED_EDGE ( 'NONE', *, *, #58, .F. ) ;
#292 = ORIENTED_EDGE ( 'NONE', *, *, #169, .F. ) ;
#293 = ADVANCED_FACE ( 'NONE', ( #164 ), #312, .T. ) ;
#294 = DESIGN_CONTEXT ( 'detailed design', #273, 'design' ) ;
#295 = FACE_OUTER_BOUND ( 'NONE', #281, .T. ) ;
#296 = VERTEX_POINT ( 'NONE', #328 ) ;
#297 = VECTOR ( 'NONE', #310, 1000.000000000000000 ) ;
#298 = CARTESIAN_POINT ( 'NONE',  ( -3.081080741271993100E-015, -25.15893352611676200, -0.1149867799113621400 ) ) ;
#299 =( NAMED_UNIT ( * ) PLANE_ANGLE_UNIT ( ) SI_UNIT ( $, .RADIAN. ) );
#300 = AXIS2_PLACEMENT_3D ( 'NONE', #232, #112, #167 ) ;
#301 = CARTESIAN_POINT ( 'NONE',  ( 0.0000000000000000000, 0.0000000000000000000, -329.8165671687279400 ) ) ;
#302 = DIRECTION ( 'NONE',  ( -0.0000000000000000000, -0.0000000000000000000, 1.000000000000000000 ) ) ;
#303 = APPROVAL_STATUS ( 'not_yet_approved' ) ;
#304 = DIRECTION ( 'NONE',  ( -1.000000000000000000, 0.0000000000000000000, 0.0000000000000000000 ) ) ;
#305 = ORIENTED_EDGE ( 'NONE', *, *, #116, .T. ) ;
#306 = DIRECTION ( 'NONE',  ( 1.000000000000000000, -1.224646799147353200E-016, 0.0000000000000000000 ) ) ;
#307 = ORIENTED_EDGE ( 'NONE', *, *, #360, .F. ) ;
#308 = EDGE_CURVE ( 'NONE', #264, #140, #352, .T. ) ;
#309 = LOCAL_TIME ( 11, 21, 58.00000000000000000, #233 ) ;
#310 = DIRECTION ( 'NONE',  ( -0.0000000000000000000, -0.0000000000000000000, 1.000000000000000000 ) ) ;
#311 = DIRECTION ( 'NONE',  ( -1.000000000000000000, 0.0000000000000000000, 0.0000000000000000000 ) ) ;
#312 = CONICAL_SURFACE ( 'NONE', #197, 25.39999999999999900, 0.8242038984172962400 ) ;
#313 = EDGE_LOOP ( 'NONE', ( #292, #139, #184, #280 ) ) ;
#314 = LINE ( 'NONE', #175, #190 ) ;
#315 = AXIS2_PLACEMENT_3D ( 'NONE', #268, #322, #241 ) ;
#316 = CONICAL_SURFACE ( 'NONE', #131, 25.15893352611674800, 0.6537597277059811200 ) ;
#317 = FACE_OUTER_BOUND ( 'NONE', #289, .T. ) ;
#318 = AXIS2_PLACEMENT_3D ( 'NONE', #284, #102, #311 ) ;
#319 = VECTOR ( 'NONE', #43, 1000.000000000000000 ) ;
#320 = ORIENTED_EDGE ( 'NONE', *, *, #340, .F. ) ;
#321 = EDGE_CURVE ( 'NONE', #277, #45, #189, .T. ) ;
#322 = DIRECTION ( 'NONE',  ( 1.000000000000000000, 0.0000000000000000000, 0.0000000000000000000 ) ) ;
#323 = CARTESIAN_POINT ( 'NONE',  ( 0.0000000000000000000, 5.976276379839081900E-015, 3.183432831272051000 ) ) ;
#324 = PERSON_AND_ORGANIZATION ( #165, #249 ) ;
#325 = CARTESIAN_POINT ( 'NONE',  ( -25.15065710651508400, 3.095335021014455000E-015, -3.183432831272051000 ) ) ;
#326 = PERSON_AND_ORGANIZATION_ROLE ( 'creator' ) ;
#327 = ORIENTED_EDGE ( 'NONE', *, *, #321, .F. ) ;
#328 = CARTESIAN_POINT ( 'NONE',  ( 0.0000000000000000000, -2.005971457003364400E-014, -2.216567168727923100 ) ) ;
#329 =( GEOMETRIC_REPRESENTATION_CONTEXT ( 3 ) GLOBAL_UNCERTAINTY_ASSIGNED_CONTEXT ( ( #81 ) ) GLOBAL_UNIT_ASSIGNED_CONTEXT ( ( #88, #299, #120 ) ) REPRESENTATION_CONTEXT ( 'NONE', 'WORKASPACE' ) );
#330 = APPROVAL_DATE_TIME ( #193, #94 ) ;
#331 = LINE ( 'NONE', #217, #319 ) ;
#332 = ORIENTED_EDGE ( 'NONE', *, *, #267, .F. ) ;
#333 = PERSON_AND_ORGANIZATION ( #165, #249 ) ;
#334 = AXIS2_PLACEMENT_3D ( 'NONE', #163, #129, #361 ) ;
#335 = CARTESIAN_POINT ( 'NONE',  ( -25.39999999999999900, 3.110602869834276900E-015, -2.952727902844912000 ) ) ;
#336 = CARTESIAN_POINT ( 'NONE',  ( 0.0000000000000000000, 0.0000000000000000000, -2.952727902844912000 ) ) ;
#337 = LINE ( 'NONE', #39, #344 ) ;
#338 = VECTOR ( 'NONE', #252, 1000.000000000000000 ) ;
#339 = DIRECTION ( 'NONE',  ( 0.0000000000000000000, 0.0000000000000000000, -1.000000000000000000 ) ) ;
#340 = EDGE_CURVE ( 'NONE', #53, #128, #314, .T. ) ;
#341 = EDGE_LOOP ( 'NONE', ( #307, #113, #332, #37, #78 ) ) ;
#342 = FACE_OUTER_BOUND ( 'NONE', #157, .T. ) ;
#343 = ORIENTED_EDGE ( 'NONE', *, *, #267, .T. ) ;
#344 = VECTOR ( 'NONE', #354, 1000.000000000000000 ) ;
#345 = VECTOR ( 'NONE', #103, 1000.000000000000000 ) ;
#346 = LINE ( 'NONE', #223, #338 ) ;
#347 = EDGE_LOOP ( 'NONE', ( #117, #188, #327, #26, #211 ) ) ;
#348 = EDGE_LOOP ( 'NONE', ( #320, #359, #85, #290, #75 ) ) ;
#349 = ADVANCED_FACE ( 'NONE', ( #201 ), #54, .T. ) ;
#350 = SPHERICAL_SURFACE ( 'NONE', #300, 97.59999999999996600 ) ;
#351 = CYLINDRICAL_SURFACE ( 'NONE', #51, 25.39999999999999900 ) ;
#352 = CIRCLE ( 'NONE', #219, 25.39999999999999900 ) ;
#353 = AXIS2_PLACEMENT_3D ( 'NONE', #362, #196, #21 ) ;
#354 = DIRECTION ( 'NONE',  ( 0.7340073492593511800, 0.0000000000000000000, 0.6791415251869531400 ) ) ;
#355 = DIRECTION ( 'NONE',  ( 1.000000000000000000, 0.0000000000000000000, 0.0000000000000000000 ) ) ;
#356 = APPROVAL_STATUS ( 'not_yet_approved' ) ;
#357 = DIRECTION ( 'NONE',  ( -0.0000000000000000000, -0.0000000000000000000, 1.000000000000000000 ) ) ;
#358 = CARTESIAN_POINT ( 'NONE',  ( 25.15893352611673400, 3.095841805553132600E-015, -0.1149867799113690700 ) ) ;
#359 = ORIENTED_EDGE ( 'NONE', *, *, #226, .F. ) ;
#360 = EDGE_CURVE ( 'NONE', #53, #107, #135, .T. ) ;
#361 = DIRECTION ( 'NONE',  ( 0.0000000000000000000, 1.000000000000000000, 0.0000000000000000000 ) ) ;
#362 = CARTESIAN_POINT ( 'NONE',  ( 0.0000000000000000000, 0.0000000000000000000, -94.41656716872790900 ) ) ;
#363 = CARTESIAN_POINT ( 'NONE',  ( 0.0000000000000000000, 0.0000000000000000000, -94.41656716872790900 ) ) ;
#364 = COORDINATED_UNIVERSAL_TIME_OFFSET ( 5, 0, .BEHIND. ) ;
#365 = ORIENTED_EDGE ( 'NONE', *, *, #98, .F. ) ;
#366 = ADVANCED_FACE ( 'NONE', ( #154 ), #100, .F. ) ;
#367 = CIRCLE ( 'NONE', #353, 97.59999999999996600 ) ;
ENDSEC;
END-ISO-10303-21;
