ISO-10303-21;
HEADER;
FILE_DESCRIPTION (( 'STEP AP203' ),
    '1' );
FILE_NAME ('Web Model 17166.step',
    '2021-06-17T18:09:55',
    ( '' ),
    ( '' ),
    'SwSTEP 2.0',
    'SolidWorks 2018',
    '' );
FILE_SCHEMA (( 'CONFIG_CONTROL_DESIGN' ));
ENDSEC;

DATA;
#1 = EDGE_LOOP ( 'NONE', ( #76, #25, #67, #15 ) ) ;
#2 = AXIS2_PLACEMENT_3D ( 'NONE', #39, #128, #111 ) ;
#3 = PERSON_AND_ORGANIZATION ( #71, #106 ) ;
#4 =( NAMED_UNIT ( * ) PLANE_ANGLE_UNIT ( ) SI_UNIT ( $, .RADIAN. ) );
#5 = APPLICATION_PROTOCOL_DEFINITION ( 'international standard', 'config_control_design', 1994, #26 ) ;
#6 = VERTEX_POINT ( 'NONE', #144 ) ;
#7 = ADVANCED_FACE ( 'NONE', ( #77 ), #36, .T. ) ;
#8 = EDGE_LOOP ( 'NONE', ( #171, #74, #104, #147 ) ) ;
#9 = DIRECTION ( 'NONE',  ( 1.000000000000000000, 0.000000000000000000, -0.000000000000000000 ) ) ;
#10 = FACE_OUTER_BOUND ( 'NONE', #20, .T. ) ;
#11 = PERSON_AND_ORGANIZATION ( #71, #106 ) ;
#12 = CC_DESIGN_PERSON_AND_ORGANIZATION_ASSIGNMENT ( #168, #109, ( #148 ) ) ;
#13 = APPROVAL_PERSON_ORGANIZATION ( #49, #85, #170 ) ;
#14 = APPLICATION_PROTOCOL_DEFINITION ( 'international standard', 'config_control_design', 1994, #139 ) ;
#15 = ORIENTED_EDGE ( 'NONE', *, *, #59, .T. ) ;
#16 = CC_DESIGN_PERSON_AND_ORGANIZATION_ASSIGNMENT ( #90, #131, ( #133 ) ) ;
#17 = CALENDAR_DATE ( 2021, 17, 6 ) ;
#18 = ADVANCED_FACE ( 'NONE', ( #41 ), #118, .F. ) ;
#19 = DIRECTION ( 'NONE',  ( -0.000000000000000000, -0.000000000000000000, -1.000000000000000000 ) ) ;
#20 = EDGE_LOOP ( 'NONE', ( #30, #43 ) ) ;
#21 = LOCAL_TIME ( 14, 9, 55.00000000000000000, #165 ) ;
#22 = AXIS2_PLACEMENT_3D ( 'NONE', #162, #159, #66 ) ;
#23 = DIRECTION ( 'NONE',  ( 0.000000000000000000, 0.000000000000000000, 1.000000000000000000 ) ) ;
#24 = DESIGN_CONTEXT ( 'detailed design', #26, 'design' ) ;
#25 = ORIENTED_EDGE ( 'NONE', *, *, #173, .F. ) ;
#26 = APPLICATION_CONTEXT ( 'configuration controlled 3d designs of mechanical parts and assemblies' ) ;
#27 = LENGTH_MEASURE_WITH_UNIT ( LENGTH_MEASURE( 0.02539999999999999897 ), #51 );
#28 = PERSON_AND_ORGANIZATION_ROLE ( 'creator' ) ;
#29 = CALENDAR_DATE ( 2021, 17, 6 ) ;
#30 = ORIENTED_EDGE ( 'NONE', *, *, #173, .T. ) ;
#31 = CARTESIAN_POINT ( 'NONE',  ( 0.000000000000000000, 0.000000000000000000, 0.000000000000000000 ) ) ;
#32 = CARTESIAN_POINT ( 'NONE',  ( 0.000000000000000000, 0.000000000000000000, 0.03937007874015747977 ) ) ;
#33 = APPROVAL_DATE_TIME ( #114, #146 ) ;
#34 = AXIS2_PLACEMENT_3D ( 'NONE', #47, #145, #56 ) ;
#35 = CARTESIAN_POINT ( 'NONE',  ( 0.5905511811023621549, 7.232166136696967594E-17, 0.03937007874015747977 ) ) ;
#36 = CYLINDRICAL_SURFACE ( 'NONE', #135, 0.5905511811023621549 ) ;
#37 = EDGE_LOOP ( 'NONE', ( #79, #65 ) ) ;
#38 =( NAMED_UNIT ( * ) SI_UNIT ( $, .STERADIAN. ) SOLID_ANGLE_UNIT ( ) );
#39 = CARTESIAN_POINT ( 'NONE',  ( 0.000000000000000000, 0.000000000000000000, 0.03937007874015747977 ) ) ;
#40 = PERSON_AND_ORGANIZATION_ROLE ( 'design_supplier' ) ;
#41 = FACE_OUTER_BOUND ( 'NONE', #37, .T. ) ;
#42 = LOCAL_TIME ( 14, 9, 55.00000000000000000, #92 ) ;
#43 = ORIENTED_EDGE ( 'NONE', *, *, #115, .T. ) ;
#44 = AXIS2_PLACEMENT_3D ( 'NONE', #31, #101, #9 ) ;
#45 = PLANE ( 'NONE',  #50 ) ;
#46 = CARTESIAN_POINT ( 'NONE',  ( 0.000000000000000000, 0.000000000000000000, 0.000000000000000000 ) ) ;
#47 = CARTESIAN_POINT ( 'NONE',  ( 0.000000000000000000, 0.000000000000000000, 0.03937007874015747977 ) ) ;
#48 = DATE_AND_TIME ( #60, #42 ) ;
#49 = PERSON_AND_ORGANIZATION ( #71, #106 ) ;
#50 = AXIS2_PLACEMENT_3D ( 'NONE', #143, #120, #88 ) ;
#51 =( LENGTH_UNIT ( ) NAMED_UNIT ( * ) SI_UNIT ( $, .METRE. ) );
#52 = PERSON_AND_ORGANIZATION_ROLE ( 'classification_officer' ) ;
#53 = VECTOR ( 'NONE', #19, 39.37007874015748143 ) ;
#54 = APPROVAL_PERSON_ORGANIZATION ( #158, #146, #138 ) ;
#55 = UNCERTAINTY_MEASURE_WITH_UNIT (LENGTH_MEASURE( 1.000000000000000082E-05 ), #80, 'distance_accuracy_value', 'NONE');
#56 = DIRECTION ( 'NONE',  ( 1.000000000000000000, 0.000000000000000000, 0.000000000000000000 ) ) ;
#57 = APPROVAL_DATE_TIME ( #153, #85 ) ;
#58 = ADVANCED_FACE ( 'NONE', ( #10 ), #45, .T. ) ;
#59 = EDGE_CURVE ( 'NONE', #151, #116, #72, .T. ) ;
#60 = CALENDAR_DATE ( 2021, 17, 6 ) ;
#61 = DATE_TIME_ROLE ( 'classification_date' ) ;
#62 = CC_DESIGN_PERSON_AND_ORGANIZATION_ASSIGNMENT ( #11, #28, ( #130 ) ) ;
#63 = APPROVAL_STATUS ( 'not_yet_approved' ) ;
#64 = LOCAL_TIME ( 14, 9, 55.00000000000000000, #169 ) ;
#65 = ORIENTED_EDGE ( 'NONE', *, *, #142, .F. ) ;
#66 = DIRECTION ( 'NONE',  ( 1.000000000000000000, 0.000000000000000000, 0.000000000000000000 ) ) ;
#67 = ORIENTED_EDGE ( 'NONE', *, *, #93, .T. ) ;
#68 = DIRECTION ( 'NONE',  ( -0.000000000000000000, -0.000000000000000000, -1.000000000000000000 ) ) ;
#69 = DIRECTION ( 'NONE',  ( -1.000000000000000000, 0.000000000000000000, 0.000000000000000000 ) ) ;
#70 = CARTESIAN_POINT ( 'NONE',  ( 0.000000000000000000, 0.000000000000000000, 0.03937007874015747977 ) ) ;
#71 = PERSON ( 'UNSPECIFIED', 'UNSPECIFIED', 'UNSPECIFIED', ('UNSPECIFIED'), ('UNSPECIFIED'), ('UNSPECIFIED') ) ;
#72 = CIRCLE ( 'NONE', #166, 0.5905511811023621549 ) ;
#73 = APPROVAL_PERSON_ORGANIZATION ( #3, #167, #140 ) ;
#74 = ORIENTED_EDGE ( 'NONE', *, *, #154, .T. ) ;
#75 = CC_DESIGN_SECURITY_CLASSIFICATION ( #105, ( #130 ) ) ;
#76 = ORIENTED_EDGE ( 'NONE', *, *, #154, .F. ) ;
#77 = FACE_OUTER_BOUND ( 'NONE', #1, .T. ) ;
#78 = PERSON_AND_ORGANIZATION ( #71, #106 ) ;
#79 = ORIENTED_EDGE ( 'NONE', *, *, #59, .F. ) ;
#80 =( CONVERSION_BASED_UNIT ( 'INCH', #27 ) LENGTH_UNIT ( ) NAMED_UNIT ( #91 ) );
#81 = APPROVAL_STATUS ( 'not_yet_approved' ) ;
#82 = MECHANICAL_CONTEXT ( 'NONE', #139, 'mechanical' ) ;
#83 = MANIFOLD_SOLID_BREP ( 'Boss-Extrude1', #175 ) ;
#84 = CYLINDRICAL_SURFACE ( 'NONE', #124, 0.5905511811023621549 ) ;
#85 = APPROVAL ( #112, 'UNSPECIFIED' ) ;
#86 = CARTESIAN_POINT ( 'NONE',  ( 0.5905511811023621549, 7.232166136696967594E-17, 0.03937007874015747977 ) ) ;
#87 = DIRECTION ( 'NONE',  ( 0.000000000000000000, 0.000000000000000000, 1.000000000000000000 ) ) ;
#88 = DIRECTION ( 'NONE',  ( 1.000000000000000000, 0.000000000000000000, -0.000000000000000000 ) ) ;
#89 = CC_DESIGN_APPROVAL ( #167, ( #105 ) ) ;
#90 = PERSON_AND_ORGANIZATION ( #71, #106 ) ;
#91 = DIMENSIONAL_EXPONENTS ( 1.000000000000000000, 0.000000000000000000, 0.000000000000000000, 0.000000000000000000, 0.000000000000000000, 0.000000000000000000, 0.000000000000000000 ) ;
#92 = COORDINATED_UNIVERSAL_TIME_OFFSET ( 5, 0, .BEHIND. ) ;
#93 = EDGE_CURVE ( 'NONE', #6, #151, #97, .T. ) ;
#94 = SECURITY_CLASSIFICATION_LEVEL ( 'unclassified' ) ;
#95 = CC_DESIGN_PERSON_AND_ORGANIZATION_ASSIGNMENT ( #137, #40, ( #130 ) ) ;
#96 = CARTESIAN_POINT ( 'NONE',  ( 0.000000000000000000, 0.000000000000000000, 0.000000000000000000 ) ) ;
#97 = LINE ( 'NONE', #119, #164 ) ;
#98 = COORDINATED_UNIVERSAL_TIME_OFFSET ( 5, 0, .BEHIND. ) ;
#99 = CARTESIAN_POINT ( 'NONE',  ( -0.5905511811023621549, 0.000000000000000000, 0.000000000000000000 ) ) ;
#100 = DIRECTION ( 'NONE',  ( -1.000000000000000000, 0.000000000000000000, 0.000000000000000000 ) ) ;
#101 = DIRECTION ( 'NONE',  ( 0.000000000000000000, 0.000000000000000000, 1.000000000000000000 ) ) ;
#102 = APPROVAL_DATE_TIME ( #123, #167 ) ;
#103 = CC_DESIGN_APPROVAL ( #85, ( #133 ) ) ;
#104 = ORIENTED_EDGE ( 'NONE', *, *, #142, .T. ) ;
#105 = SECURITY_CLASSIFICATION ( '', '', #94 ) ;
#106 = ORGANIZATION ( 'UNSPECIFIED', 'UNSPECIFIED', '' ) ;
#107 = VERTEX_POINT ( 'NONE', #86 ) ;
#108 =( GEOMETRIC_REPRESENTATION_CONTEXT ( 3 ) GLOBAL_UNCERTAINTY_ASSIGNED_CONTEXT ( ( #55 ) ) GLOBAL_UNIT_ASSIGNED_CONTEXT ( ( #80, #4, #38 ) ) REPRESENTATION_CONTEXT ( 'NONE', 'WORKASPACE' ) );
#109 = PERSON_AND_ORGANIZATION_ROLE ( 'design_owner' ) ;
#110 = ADVANCED_BREP_SHAPE_REPRESENTATION ( 'Web Model 17166', ( #83, #161 ), #108 ) ;
#111 = DIRECTION ( 'NONE',  ( 1.000000000000000000, 0.000000000000000000, 0.000000000000000000 ) ) ;
#112 = APPROVAL_STATUS ( 'not_yet_approved' ) ;
#113 = CIRCLE ( 'NONE', #2, 0.5905511811023621549 ) ;
#114 = DATE_AND_TIME ( #132, #178 ) ;
#115 = EDGE_CURVE ( 'NONE', #107, #6, #149, .T. ) ;
#116 = VERTEX_POINT ( 'NONE', #160 ) ;
#117 = PRODUCT_DEFINITION_SHAPE ( 'NONE', 'NONE',  #133 ) ;
#118 = PLANE ( 'NONE',  #44 ) ;
#119 = CARTESIAN_POINT ( 'NONE',  ( -0.5905511811023621549, 0.000000000000000000, 0.03937007874015747977 ) ) ;
#120 = DIRECTION ( 'NONE',  ( 0.000000000000000000, 0.000000000000000000, 1.000000000000000000 ) ) ;
#121 = CC_DESIGN_APPROVAL ( #146, ( #130 ) ) ;
#122 = COORDINATED_UNIVERSAL_TIME_OFFSET ( 5, 0, .BEHIND. ) ;
#123 = DATE_AND_TIME ( #141, #64 ) ;
#124 = AXIS2_PLACEMENT_3D ( 'NONE', #70, #174, #100 ) ;
#125 = DATE_AND_TIME ( #17, #21 ) ;
#126 = CC_DESIGN_DATE_AND_TIME_ASSIGNMENT ( #48, #155, ( #133 ) ) ;
#127 = DIRECTION ( 'NONE',  ( 1.000000000000000000, 0.000000000000000000, 0.000000000000000000 ) ) ;
#128 = DIRECTION ( 'NONE',  ( 0.000000000000000000, 0.000000000000000000, 1.000000000000000000 ) ) ;
#129 = LOCAL_TIME ( 14, 9, 55.00000000000000000, #122 ) ;
#130 = PRODUCT_DEFINITION_FORMATION_WITH_SPECIFIED_SOURCE ( 'ANY', '', #148, .NOT_KNOWN. ) ;
#131 = PERSON_AND_ORGANIZATION_ROLE ( 'creator' ) ;
#132 = CALENDAR_DATE ( 2021, 17, 6 ) ;
#133 = PRODUCT_DEFINITION ( 'UNKNOWN', '', #130, #24 ) ;
#134 = DIRECTION ( 'NONE',  ( 1.000000000000000000, 0.000000000000000000, 0.000000000000000000 ) ) ;
#135 = AXIS2_PLACEMENT_3D ( 'NONE', #32, #68, #69 ) ;
#136 = CC_DESIGN_PERSON_AND_ORGANIZATION_ASSIGNMENT ( #78, #52, ( #105 ) ) ;
#137 = PERSON_AND_ORGANIZATION ( #71, #106 ) ;
#138 = APPROVAL_ROLE ( '' ) ;
#139 = APPLICATION_CONTEXT ( 'configuration controlled 3d designs of mechanical parts and assemblies' ) ;
#140 = APPROVAL_ROLE ( '' ) ;
#141 = CALENDAR_DATE ( 2021, 17, 6 ) ;
#142 = EDGE_CURVE ( 'NONE', #116, #151, #176, .T. ) ;
#143 = CARTESIAN_POINT ( 'NONE',  ( 0.000000000000000000, 0.000000000000000000, 0.03937007874015747977 ) ) ;
#144 = CARTESIAN_POINT ( 'NONE',  ( -0.5905511811023621549, 0.000000000000000000, 0.03937007874015747977 ) ) ;
#145 = DIRECTION ( 'NONE',  ( 0.000000000000000000, 0.000000000000000000, 1.000000000000000000 ) ) ;
#146 = APPROVAL ( #63, 'UNSPECIFIED' ) ;
#147 = ORIENTED_EDGE ( 'NONE', *, *, #93, .F. ) ;
#148 = PRODUCT ( 'Web Model 17166', 'Web Model 17166', '', ( #82 ) ) ;
#149 = CIRCLE ( 'NONE', #34, 0.5905511811023621549 ) ;
#150 = ADVANCED_FACE ( 'NONE', ( #152 ), #84, .T. ) ;
#151 = VERTEX_POINT ( 'NONE', #99 ) ;
#152 = FACE_OUTER_BOUND ( 'NONE', #8, .T. ) ;
#153 = DATE_AND_TIME ( #29, #129 ) ;
#154 = EDGE_CURVE ( 'NONE', #107, #116, #157, .T. ) ;
#155 = DATE_TIME_ROLE ( 'creation_date' ) ;
#156 = CC_DESIGN_DATE_AND_TIME_ASSIGNMENT ( #125, #61, ( #105 ) ) ;
#157 = LINE ( 'NONE', #35, #53 ) ;
#158 = PERSON_AND_ORGANIZATION ( #71, #106 ) ;
#159 = DIRECTION ( 'NONE',  ( 0.000000000000000000, 0.000000000000000000, 1.000000000000000000 ) ) ;
#160 = CARTESIAN_POINT ( 'NONE',  ( 0.5905511811023621549, 7.232166136696967594E-17, 0.000000000000000000 ) ) ;
#161 = AXIS2_PLACEMENT_3D ( 'NONE', #96, #23, #127 ) ;
#162 = CARTESIAN_POINT ( 'NONE',  ( 0.000000000000000000, 0.000000000000000000, 0.000000000000000000 ) ) ;
#163 = DIRECTION ( 'NONE',  ( -0.000000000000000000, -0.000000000000000000, -1.000000000000000000 ) ) ;
#164 = VECTOR ( 'NONE', #163, 39.37007874015748143 ) ;
#165 = COORDINATED_UNIVERSAL_TIME_OFFSET ( 5, 0, .BEHIND. ) ;
#166 = AXIS2_PLACEMENT_3D ( 'NONE', #46, #87, #134 ) ;
#167 = APPROVAL ( #81, 'UNSPECIFIED' ) ;
#168 = PERSON_AND_ORGANIZATION ( #71, #106 ) ;
#169 = COORDINATED_UNIVERSAL_TIME_OFFSET ( 5, 0, .BEHIND. ) ;
#170 = APPROVAL_ROLE ( '' ) ;
#171 = ORIENTED_EDGE ( 'NONE', *, *, #115, .F. ) ;
#172 = SHAPE_DEFINITION_REPRESENTATION ( #117, #110 ) ;
#173 = EDGE_CURVE ( 'NONE', #6, #107, #113, .T. ) ;
#174 = DIRECTION ( 'NONE',  ( -0.000000000000000000, -0.000000000000000000, -1.000000000000000000 ) ) ;
#175 = CLOSED_SHELL ( 'NONE', ( #150, #7, #58, #18 ) ) ;
#176 = CIRCLE ( 'NONE', #22, 0.5905511811023621549 ) ;
#177 = PRODUCT_RELATED_PRODUCT_CATEGORY ( 'detail', '', ( #148 ) ) ;
#178 = LOCAL_TIME ( 14, 9, 55.00000000000000000, #98 ) ;
ENDSEC;
END-ISO-10303-21;
