ISO-10303-21;
HEADER;
FILE_DESCRIPTION (( 'STEP AP203' ),
    '1' );
FILE_NAME ('Web Model 14684_14687.step',
    '2020-04-13T13:38:47',
    ( '' ),
    ( '' ),
    'SwSTEP 2.0',
    'SolidWorks 2018',
    '' );
FILE_SCHEMA (( 'CONFIG_CONTROL_DESIGN' ));
ENDSEC;

DATA;
#1 = ORIENTED_EDGE ( 'NONE', *, *, #121, .F. ) ;
#2 = ORIENTED_EDGE ( 'NONE', *, *, #152, .T. ) ;
#3 = CC_DESIGN_PERSON_AND_ORGANIZATION_ASSIGNMENT ( #61, #19, ( #54 ) ) ;
#4 = DIRECTION ( 'NONE',  ( -1.000000000000000000, -0.0000000000000000000, -0.0000000000000000000 ) ) ;
#5 = CARTESIAN_POINT ( 'NONE',  ( 1.500000000000000000, 0.0000000000000000000, 10.00000000000000000 ) ) ;
#6 = DIRECTION ( 'NONE',  ( 0.0000000000000000000, 0.0000000000000000000, -1.000000000000000000 ) ) ;
#7 = EDGE_LOOP ( 'NONE', ( #13, #119 ) ) ;
#8 = FACE_OUTER_BOUND ( 'NONE', #7, .T. ) ;
#9 = APPROVAL ( #26, 'UNSPECIFIED' ) ;
#10 = FACE_OUTER_BOUND ( 'NONE', #51, .T. ) ;
#11 = CC_DESIGN_APPROVAL ( #161, ( #43 ) ) ;
#12 = PERSON ( 'UNSPECIFIED', 'UNSPECIFIED', 'UNSPECIFIED', ('UNSPECIFIED'), ('UNSPECIFIED'), ('UNSPECIFIED') ) ;
#13 = ORIENTED_EDGE ( 'NONE', *, *, #52, .F. ) ;
#14 = CARTESIAN_POINT ( 'NONE',  ( 1.500000000000000000, 0.0000000000000000000, 0.0000000000000000000 ) ) ;
#15 = CIRCLE ( 'NONE', #80, 10.00000000000000000 ) ;
#16 = DIRECTION ( 'NONE',  ( 0.0000000000000000000, 0.0000000000000000000, 1.000000000000000000 ) ) ;
#17 = MANIFOLD_SOLID_BREP ( 'Boss-Extrude1', #106 ) ;
#18 = DIRECTION ( 'NONE',  ( 1.000000000000000000, 0.0000000000000000000, 0.0000000000000000000 ) ) ;
#19 = PERSON_AND_ORGANIZATION_ROLE ( 'design_supplier' ) ;
#20 = DIRECTION ( 'NONE',  ( 0.0000000000000000000, 0.0000000000000000000, -1.000000000000000000 ) ) ;
#21 = APPROVAL_DATE_TIME ( #101, #113 ) ;
#22 = ADVANCED_FACE ( 'NONE', ( #10 ), #91, .T. ) ;
#23 = CALENDAR_DATE ( 2020, 13, 4 ) ;
#24 = CALENDAR_DATE ( 2020, 13, 4 ) ;
#25 = APPROVAL_ROLE ( '' ) ;
#26 = APPROVAL_STATUS ( 'not_yet_approved' ) ;
#27 = DIRECTION ( 'NONE',  ( -1.000000000000000000, -0.0000000000000000000, -0.0000000000000000000 ) ) ;
#28 = ADVANCED_BREP_SHAPE_REPRESENTATION ( 'Web Model 14684_14687', ( #17, #164 ), #105 ) ;
#29 = APPROVAL_DATE_TIME ( #98, #161 ) ;
#30 = DIRECTION ( 'NONE',  ( 1.000000000000000000, 0.0000000000000000000, 0.0000000000000000000 ) ) ;
#31 = APPROVAL_ROLE ( '' ) ;
#32 = COORDINATED_UNIVERSAL_TIME_OFFSET ( 5, 0, .BEHIND. ) ;
#33 = DATE_TIME_ROLE ( 'classification_date' ) ;
#34 = PERSON_AND_ORGANIZATION ( #12, #153 ) ;
#35 = VERTEX_POINT ( 'NONE', #96 ) ;
#36 = CC_DESIGN_DATE_AND_TIME_ASSIGNMENT ( #169, #33, ( #69 ) ) ;
#37 = EDGE_CURVE ( 'NONE', #64, #102, #75, .T. ) ;
#38 = DATE_AND_TIME ( #115, #63 ) ;
#39 = ORIENTED_EDGE ( 'NONE', *, *, #152, .F. ) ;
#40 = CC_DESIGN_PERSON_AND_ORGANIZATION_ASSIGNMENT ( #133, #85, ( #54 ) ) ;
#41 = AXIS2_PLACEMENT_3D ( 'NONE', #53, #93, #138 ) ;
#42 = EDGE_LOOP ( 'NONE', ( #39, #147, #134, #1 ) ) ;
#43 = PRODUCT_DEFINITION ( 'UNKNOWN', '', #54, #45 ) ;
#44 = APPLICATION_PROTOCOL_DEFINITION ( 'international standard', 'config_control_design', 1994, #158 ) ;
#45 = DESIGN_CONTEXT ( 'detailed design', #99, 'design' ) ;
#46 = CARTESIAN_POINT ( 'NONE',  ( -1.500000000000000000, 0.0000000000000000000, 0.0000000000000000000 ) ) ;
#47 = CC_DESIGN_DATE_AND_TIME_ASSIGNMENT ( #160, #74, ( #43 ) ) ;
#48 = UNCERTAINTY_MEASURE_WITH_UNIT (LENGTH_MEASURE( 1.000000000000000082E-05 ), #73, 'distance_accuracy_value', 'NONE');
#49 = CARTESIAN_POINT ( 'NONE',  ( 1.500000000000000000, 1.224646799147353256E-15, -10.00000000000000000 ) ) ;
#50 = LOCAL_TIME ( 9, 38, 47.00000000000000000, #165 ) ;
#51 = EDGE_LOOP ( 'NONE', ( #81, #130, #78, #95 ) ) ;
#52 = EDGE_CURVE ( 'NONE', #35, #102, #140, .T. ) ;
#53 = CARTESIAN_POINT ( 'NONE',  ( -1.500000000000000000, 0.0000000000000000000, 0.0000000000000000000 ) ) ;
#54 = PRODUCT_DEFINITION_FORMATION_WITH_SPECIFIED_SOURCE ( 'ANY', '', #92, .NOT_KNOWN. ) ;
#55 = CALENDAR_DATE ( 2020, 13, 4 ) ;
#56 = APPROVAL_STATUS ( 'not_yet_approved' ) ;
#57 = PERSON_AND_ORGANIZATION_ROLE ( 'design_owner' ) ;
#58 = MECHANICAL_CONTEXT ( 'NONE', #158, 'mechanical' ) ;
#59 = CC_DESIGN_APPROVAL ( #113, ( #54 ) ) ;
#60 = ADVANCED_FACE ( 'NONE', ( #8 ), #141, .F. ) ;
#61 = PERSON_AND_ORGANIZATION ( #12, #153 ) ;
#62 = AXIS2_PLACEMENT_3D ( 'NONE', #14, #27, #16 ) ;
#63 = LOCAL_TIME ( 9, 38, 47.00000000000000000, #126 ) ;
#64 = VERTEX_POINT ( 'NONE', #68 ) ;
#65 = CIRCLE ( 'NONE', #70, 10.00000000000000000 ) ;
#66 = CC_DESIGN_PERSON_AND_ORGANIZATION_ASSIGNMENT ( #79, #143, ( #43 ) ) ;
#67 = CYLINDRICAL_SURFACE ( 'NONE', #62, 10.00000000000000000 ) ;
#68 = CARTESIAN_POINT ( 'NONE',  ( 1.500000000000000000, 1.224646799147353256E-15, -10.00000000000000000 ) ) ;
#69 = SECURITY_CLASSIFICATION ( '', '', #116 ) ;
#70 = AXIS2_PLACEMENT_3D ( 'NONE', #159, #76, #20 ) ;
#71 = DIRECTION ( 'NONE',  ( 0.0000000000000000000, 0.0000000000000000000, -1.000000000000000000 ) ) ;
#72 = CARTESIAN_POINT ( 'NONE',  ( 1.500000000000000000, 0.0000000000000000000, 0.0000000000000000000 ) ) ;
#73 =( LENGTH_UNIT ( ) NAMED_UNIT ( * ) SI_UNIT ( .MILLI., .METRE. ) );
#74 = DATE_TIME_ROLE ( 'creation_date' ) ;
#75 = LINE ( 'NONE', #49, #151 ) ;
#76 = DIRECTION ( 'NONE',  ( 1.000000000000000000, 0.0000000000000000000, 0.0000000000000000000 ) ) ;
#77 = ADVANCED_FACE ( 'NONE', ( #125 ), #67, .T. ) ;
#78 = ORIENTED_EDGE ( 'NONE', *, *, #121, .T. ) ;
#79 = PERSON_AND_ORGANIZATION ( #12, #153 ) ;
#80 = AXIS2_PLACEMENT_3D ( 'NONE', #170, #127, #157 ) ;
#81 = ORIENTED_EDGE ( 'NONE', *, *, #37, .F. ) ;
#82 = CARTESIAN_POINT ( 'NONE',  ( -1.500000000000000000, 0.0000000000000000000, 0.0000000000000000000 ) ) ;
#83 = APPROVAL_PERSON_ORGANIZATION ( #156, #113, #31 ) ;
#84 =( NAMED_UNIT ( * ) SI_UNIT ( $, .STERADIAN. ) SOLID_ANGLE_UNIT ( ) );
#85 = PERSON_AND_ORGANIZATION_ROLE ( 'creator' ) ;
#86 = CC_DESIGN_PERSON_AND_ORGANIZATION_ASSIGNMENT ( #34, #57, ( #92 ) ) ;
#87 = LOCAL_TIME ( 9, 38, 47.00000000000000000, #94 ) ;
#88 = EDGE_LOOP ( 'NONE', ( #167, #2 ) ) ;
#89 = APPROVAL_DATE_TIME ( #38, #9 ) ;
#90 = LOCAL_TIME ( 9, 38, 47.00000000000000000, #135 ) ;
#91 = CYLINDRICAL_SURFACE ( 'NONE', #142, 10.00000000000000000 ) ;
#92 = PRODUCT ( 'Web Model 14684_14687', 'Web Model 14684_14687', '', ( #58 ) ) ;
#93 = DIRECTION ( 'NONE',  ( 1.000000000000000000, 0.0000000000000000000, 0.0000000000000000000 ) ) ;
#94 = COORDINATED_UNIVERSAL_TIME_OFFSET ( 5, 0, .BEHIND. ) ;
#95 = ORIENTED_EDGE ( 'NONE', *, *, #52, .T. ) ;
#96 = CARTESIAN_POINT ( 'NONE',  ( -1.500000000000000000, 0.0000000000000000000, 10.00000000000000000 ) ) ;
#97 = CARTESIAN_POINT ( 'NONE',  ( 1.500000000000000000, 0.0000000000000000000, 0.0000000000000000000 ) ) ;
#98 = DATE_AND_TIME ( #55, #90 ) ;
#99 = APPLICATION_CONTEXT ( 'configuration controlled 3d designs of mechanical parts and assemblies' ) ;
#100 = APPROVAL_STATUS ( 'not_yet_approved' ) ;
#101 = DATE_AND_TIME ( #23, #123 ) ;
#102 = VERTEX_POINT ( 'NONE', #166 ) ;
#103 = AXIS2_PLACEMENT_3D ( 'NONE', #72, #124, #71 ) ;
#104 = CC_DESIGN_PERSON_AND_ORGANIZATION_ASSIGNMENT ( #173, #117, ( #69 ) ) ;
#105 =( GEOMETRIC_REPRESENTATION_CONTEXT ( 3 ) GLOBAL_UNCERTAINTY_ASSIGNED_CONTEXT ( ( #48 ) ) GLOBAL_UNIT_ASSIGNED_CONTEXT ( ( #73, #128, #84 ) ) REPRESENTATION_CONTEXT ( 'NONE', 'WORKASPACE' ) );
#106 = CLOSED_SHELL ( 'NONE', ( #77, #22, #118, #60 ) ) ;
#107 = CIRCLE ( 'NONE', #162, 10.00000000000000000 ) ;
#108 = DIRECTION ( 'NONE',  ( -1.000000000000000000, -0.0000000000000000000, -0.0000000000000000000 ) ) ;
#109 = DIRECTION ( 'NONE',  ( 1.000000000000000000, 0.0000000000000000000, 0.0000000000000000000 ) ) ;
#110 = PLANE ( 'NONE',  #103 ) ;
#111 = VECTOR ( 'NONE', #168, 1000.000000000000000 ) ;
#112 = DIRECTION ( 'NONE',  ( 0.0000000000000000000, 0.0000000000000000000, -1.000000000000000000 ) ) ;
#113 = APPROVAL ( #100, 'UNSPECIFIED' ) ;
#114 = CARTESIAN_POINT ( 'NONE',  ( 0.0000000000000000000, 0.0000000000000000000, 0.0000000000000000000 ) ) ;
#115 = CALENDAR_DATE ( 2020, 13, 4 ) ;
#116 = SECURITY_CLASSIFICATION_LEVEL ( 'unclassified' ) ;
#117 = PERSON_AND_ORGANIZATION_ROLE ( 'classification_officer' ) ;
#118 = ADVANCED_FACE ( 'NONE', ( #150 ), #110, .T. ) ;
#119 = ORIENTED_EDGE ( 'NONE', *, *, #131, .F. ) ;
#120 = VERTEX_POINT ( 'NONE', #5 ) ;
#121 = EDGE_CURVE ( 'NONE', #120, #35, #122, .T. ) ;
#122 = LINE ( 'NONE', #154, #111 ) ;
#123 = LOCAL_TIME ( 9, 38, 47.00000000000000000, #32 ) ;
#124 = DIRECTION ( 'NONE',  ( 1.000000000000000000, 0.0000000000000000000, 0.0000000000000000000 ) ) ;
#125 = FACE_OUTER_BOUND ( 'NONE', #42, .T. ) ;
#126 = COORDINATED_UNIVERSAL_TIME_OFFSET ( 5, 0, .BEHIND. ) ;
#127 = DIRECTION ( 'NONE',  ( 1.000000000000000000, 0.0000000000000000000, 0.0000000000000000000 ) ) ;
#128 =( NAMED_UNIT ( * ) PLANE_ANGLE_UNIT ( ) SI_UNIT ( $, .RADIAN. ) );
#129 = CC_DESIGN_APPROVAL ( #9, ( #69 ) ) ;
#130 = ORIENTED_EDGE ( 'NONE', *, *, #136, .F. ) ;
#131 = EDGE_CURVE ( 'NONE', #102, #35, #107, .T. ) ;
#132 = PERSON_AND_ORGANIZATION ( #12, #153 ) ;
#133 = PERSON_AND_ORGANIZATION ( #12, #153 ) ;
#134 = ORIENTED_EDGE ( 'NONE', *, *, #131, .T. ) ;
#135 = COORDINATED_UNIVERSAL_TIME_OFFSET ( 5, 0, .BEHIND. ) ;
#136 = EDGE_CURVE ( 'NONE', #120, #64, #65, .T. ) ;
#137 = PERSON_AND_ORGANIZATION ( #12, #153 ) ;
#138 = DIRECTION ( 'NONE',  ( 0.0000000000000000000, 0.0000000000000000000, -1.000000000000000000 ) ) ;
#139 = DIRECTION ( 'NONE',  ( 0.0000000000000000000, 0.0000000000000000000, 1.000000000000000000 ) ) ;
#140 = CIRCLE ( 'NONE', #148, 10.00000000000000000 ) ;
#141 = PLANE ( 'NONE',  #41 ) ;
#142 = AXIS2_PLACEMENT_3D ( 'NONE', #97, #4, #139 ) ;
#143 = PERSON_AND_ORGANIZATION_ROLE ( 'creator' ) ;
#144 = SHAPE_DEFINITION_REPRESENTATION ( #149, #28 ) ;
#145 = DIRECTION ( 'NONE',  ( 0.0000000000000000000, 0.0000000000000000000, 1.000000000000000000 ) ) ;
#146 = APPROVAL_PERSON_ORGANIZATION ( #132, #9, #25 ) ;
#147 = ORIENTED_EDGE ( 'NONE', *, *, #37, .T. ) ;
#148 = AXIS2_PLACEMENT_3D ( 'NONE', #82, #109, #112 ) ;
#149 = PRODUCT_DEFINITION_SHAPE ( 'NONE', 'NONE',  #43 ) ;
#150 = FACE_OUTER_BOUND ( 'NONE', #88, .T. ) ;
#151 = VECTOR ( 'NONE', #108, 1000.000000000000000 ) ;
#152 = EDGE_CURVE ( 'NONE', #64, #120, #15, .T. ) ;
#153 = ORGANIZATION ( 'UNSPECIFIED', 'UNSPECIFIED', '' ) ;
#154 = CARTESIAN_POINT ( 'NONE',  ( 1.500000000000000000, 0.0000000000000000000, 10.00000000000000000 ) ) ;
#155 = APPROVAL_ROLE ( '' ) ;
#156 = PERSON_AND_ORGANIZATION ( #12, #153 ) ;
#157 = DIRECTION ( 'NONE',  ( 0.0000000000000000000, 0.0000000000000000000, -1.000000000000000000 ) ) ;
#158 = APPLICATION_CONTEXT ( 'configuration controlled 3d designs of mechanical parts and assemblies' ) ;
#159 = CARTESIAN_POINT ( 'NONE',  ( 1.500000000000000000, 0.0000000000000000000, 0.0000000000000000000 ) ) ;
#160 = DATE_AND_TIME ( #163, #50 ) ;
#161 = APPROVAL ( #56, 'UNSPECIFIED' ) ;
#162 = AXIS2_PLACEMENT_3D ( 'NONE', #46, #30, #6 ) ;
#163 = CALENDAR_DATE ( 2020, 13, 4 ) ;
#164 = AXIS2_PLACEMENT_3D ( 'NONE', #114, #145, #18 ) ;
#165 = COORDINATED_UNIVERSAL_TIME_OFFSET ( 5, 0, .BEHIND. ) ;
#166 = CARTESIAN_POINT ( 'NONE',  ( -1.500000000000000000, 1.224646799147353256E-15, -10.00000000000000000 ) ) ;
#167 = ORIENTED_EDGE ( 'NONE', *, *, #136, .T. ) ;
#168 = DIRECTION ( 'NONE',  ( -1.000000000000000000, -0.0000000000000000000, -0.0000000000000000000 ) ) ;
#169 = DATE_AND_TIME ( #24, #87 ) ;
#170 = CARTESIAN_POINT ( 'NONE',  ( 1.500000000000000000, 0.0000000000000000000, 0.0000000000000000000 ) ) ;
#171 = PRODUCT_RELATED_PRODUCT_CATEGORY ( 'detail', '', ( #92 ) ) ;
#172 = APPLICATION_PROTOCOL_DEFINITION ( 'international standard', 'config_control_design', 1994, #99 ) ;
#173 = PERSON_AND_ORGANIZATION ( #12, #153 ) ;
#174 = APPROVAL_PERSON_ORGANIZATION ( #137, #161, #155 ) ;
#175 = CC_DESIGN_SECURITY_CLASSIFICATION ( #69, ( #54 ) ) ;
ENDSEC;
END-ISO-10303-21;
