ISO-10303-21;
HEADER;
FILE_DESCRIPTION (( 'STEP AP203' ),
    '1' );
FILE_NAME ('Web Model 45567_20913.step',
    '2022-03-15T17:13:03',
    ( '' ),
    ( '' ),
    'SwSTEP 2.0',
    'SolidWorks 2021',
    '' );
FILE_SCHEMA (( 'CONFIG_CONTROL_DESIGN' ));
ENDSEC;

DATA;
#1 = AXIS2_PLACEMENT_3D ( 'NONE', #25, #76, #11 ) ;
#2 = PERSON_AND_ORGANIZATION ( #156, #27 ) ;
#3 = APPROVAL_DATE_TIME ( #117, #13 ) ;
#4 = CC_DESIGN_PERSON_AND_ORGANIZATION_ASSIGNMENT ( #148, #46, ( #59 ) ) ;
#5 = APPROVAL_DATE_TIME ( #165, #43 ) ;
#6 = PERSON_AND_ORGANIZATION_ROLE ( 'design_owner' ) ;
#7 = CC_DESIGN_PERSON_AND_ORGANIZATION_ASSIGNMENT ( #168, #6, ( #109 ) ) ;
#8 = ORIENTED_EDGE ( 'NONE', *, *, #160, .F. ) ;
#9 = EDGE_CURVE ( 'NONE', #65, #107, #66, .T. ) ;
#10 = APPROVAL_DATE_TIME ( #67, #81 ) ;
#11 = DIRECTION ( 'NONE',  ( 1.000000000000000000, 0.000000000000000000, -0.000000000000000000 ) ) ;
#12 = CARTESIAN_POINT ( 'NONE',  ( -3.175000000000001155, 0.000000000000000000, 2.000000000000000000 ) ) ;
#13 = APPROVAL ( #16, 'UNSPECIFIED' ) ;
#14 = APPROVAL_PERSON_ORGANIZATION ( #170, #81, #121 ) ;
#15 = CC_DESIGN_PERSON_AND_ORGANIZATION_ASSIGNMENT ( #61, #72, ( #21 ) ) ;
#16 = APPROVAL_STATUS ( 'not_yet_approved' ) ;
#17 = PERSON_AND_ORGANIZATION ( #156, #27 ) ;
#18 = ADVANCED_BREP_SHAPE_REPRESENTATION ( 'Web Model 45567_20913', ( #99, #119 ), #86 ) ;
#19 = APPLICATION_PROTOCOL_DEFINITION ( 'international standard', 'config_control_design', 1994, #49 ) ;
#20 = APPLICATION_CONTEXT ( 'configuration controlled 3d designs of mechanical parts and assemblies' ) ;
#21 = PRODUCT_DEFINITION_FORMATION_WITH_SPECIFIED_SOURCE ( 'ANY', '', #109, .NOT_KNOWN. ) ;
#22 = DIRECTION ( 'NONE',  ( 0.000000000000000000, 0.000000000000000000, 1.000000000000000000 ) ) ;
#23 = ADVANCED_FACE ( 'NONE', ( #155 ), #138, .T. ) ;
#24 = ORIENTED_EDGE ( 'NONE', *, *, #141, .T. ) ;
#25 = CARTESIAN_POINT ( 'NONE',  ( 0.000000000000000000, 0.000000000000000000, 2.000000000000000000 ) ) ;
#26 = LOCAL_TIME ( 13, 13, 3.000000000000000000, #94 ) ;
#27 = ORGANIZATION ( 'UNSPECIFIED', 'UNSPECIFIED', '' ) ;
#28 = DIRECTION ( 'NONE',  ( 1.000000000000000000, 0.000000000000000000, 0.000000000000000000 ) ) ;
#29 = CARTESIAN_POINT ( 'NONE',  ( 0.000000000000000000, 0.000000000000000000, 2.000000000000000000 ) ) ;
#30 = FACE_OUTER_BOUND ( 'NONE', #140, .T. ) ;
#31 = DIRECTION ( 'NONE',  ( 1.000000000000000000, 0.000000000000000000, 0.000000000000000000 ) ) ;
#32 = APPROVAL_PERSON_ORGANIZATION ( #34, #43, #48 ) ;
#33 = AXIS2_PLACEMENT_3D ( 'NONE', #58, #162, #80 ) ;
#34 = PERSON_AND_ORGANIZATION ( #156, #27 ) ;
#35 = PERSON_AND_ORGANIZATION ( #156, #27 ) ;
#36 = FACE_OUTER_BOUND ( 'NONE', #106, .T. ) ;
#37 = AXIS2_PLACEMENT_3D ( 'NONE', #143, #77, #28 ) ;
#38 = EDGE_CURVE ( 'NONE', #107, #85, #51, .T. ) ;
#39 = SHAPE_DEFINITION_REPRESENTATION ( #139, #18 ) ;
#40 = ORIENTED_EDGE ( 'NONE', *, *, #141, .F. ) ;
#41 = EDGE_LOOP ( 'NONE', ( #8, #50 ) ) ;
#42 = DIRECTION ( 'NONE',  ( -1.000000000000000000, 0.000000000000000000, 0.000000000000000000 ) ) ;
#43 = APPROVAL ( #104, 'UNSPECIFIED' ) ;
#44 = CC_DESIGN_APPROVAL ( #81, ( #59 ) ) ;
#45 = CARTESIAN_POINT ( 'NONE',  ( 0.000000000000000000, 0.000000000000000000, 0.000000000000000000 ) ) ;
#46 = PERSON_AND_ORGANIZATION_ROLE ( 'classification_officer' ) ;
#47 = LOCAL_TIME ( 13, 13, 3.000000000000000000, #133 ) ;
#48 = APPROVAL_ROLE ( '' ) ;
#49 = APPLICATION_CONTEXT ( 'configuration controlled 3d designs of mechanical parts and assemblies' ) ;
#50 = ORIENTED_EDGE ( 'NONE', *, *, #38, .F. ) ;
#51 = CIRCLE ( 'NONE', #96, 3.175000000000001155 ) ;
#52 = ORIENTED_EDGE ( 'NONE', *, *, #9, .F. ) ;
#53 = LOCAL_TIME ( 13, 13, 3.000000000000000000, #154 ) ;
#54 = UNCERTAINTY_MEASURE_WITH_UNIT (LENGTH_MEASURE( 1.000000000000000082E-05 ), #92, 'distance_accuracy_value', 'NONE');
#55 = LOCAL_TIME ( 13, 13, 3.000000000000000000, #149 ) ;
#56 = CYLINDRICAL_SURFACE ( 'NONE', #124, 3.175000000000001155 ) ;
#57 = CARTESIAN_POINT ( 'NONE',  ( -3.175000000000001155, 0.000000000000000000, 2.000000000000000000 ) ) ;
#58 = CARTESIAN_POINT ( 'NONE',  ( 0.000000000000000000, 0.000000000000000000, 0.000000000000000000 ) ) ;
#59 = SECURITY_CLASSIFICATION ( '', '', #166 ) ;
#60 = DIRECTION ( 'NONE',  ( -0.000000000000000000, -0.000000000000000000, -1.000000000000000000 ) ) ;
#61 = PERSON_AND_ORGANIZATION ( #156, #27 ) ;
#62 = DATE_TIME_ROLE ( 'classification_date' ) ;
#63 = DIRECTION ( 'NONE',  ( -0.000000000000000000, -0.000000000000000000, -1.000000000000000000 ) ) ;
#64 = CALENDAR_DATE ( 2022, 15, 3 ) ;
#65 = VERTEX_POINT ( 'NONE', #87 ) ;
#66 = LINE ( 'NONE', #172, #115 ) ;
#67 = DATE_AND_TIME ( #108, #53 ) ;
#68 = VERTEX_POINT ( 'NONE', #57 ) ;
#69 = DIRECTION ( 'NONE',  ( -0.000000000000000000, -0.000000000000000000, -1.000000000000000000 ) ) ;
#70 = CIRCLE ( 'NONE', #100, 3.175000000000001155 ) ;
#71 = CALENDAR_DATE ( 2022, 15, 3 ) ;
#72 = PERSON_AND_ORGANIZATION_ROLE ( 'design_supplier' ) ;
#73 =( NAMED_UNIT ( * ) PLANE_ANGLE_UNIT ( ) SI_UNIT ( $, .RADIAN. ) );
#74 = CARTESIAN_POINT ( 'NONE',  ( 0.000000000000000000, 0.000000000000000000, 2.000000000000000000 ) ) ;
#75 = PRODUCT_DEFINITION ( 'UNKNOWN', '', #21, #157 ) ;
#76 = DIRECTION ( 'NONE',  ( 0.000000000000000000, 0.000000000000000000, 1.000000000000000000 ) ) ;
#77 = DIRECTION ( 'NONE',  ( 0.000000000000000000, 0.000000000000000000, 1.000000000000000000 ) ) ;
#78 = PLANE ( 'NONE',  #33 ) ;
#79 = CALENDAR_DATE ( 2022, 15, 3 ) ;
#80 = DIRECTION ( 'NONE',  ( 1.000000000000000000, 0.000000000000000000, -0.000000000000000000 ) ) ;
#81 = APPROVAL ( #135, 'UNSPECIFIED' ) ;
#82 = DIRECTION ( 'NONE',  ( 1.000000000000000000, 0.000000000000000000, 0.000000000000000000 ) ) ;
#83 = EDGE_LOOP ( 'NONE', ( #24, #122 ) ) ;
#84 = EDGE_CURVE ( 'NONE', #65, #68, #110, .T. ) ;
#85 = VERTEX_POINT ( 'NONE', #98 ) ;
#86 =( GEOMETRIC_REPRESENTATION_CONTEXT ( 3 ) GLOBAL_UNCERTAINTY_ASSIGNED_CONTEXT ( ( #54 ) ) GLOBAL_UNIT_ASSIGNED_CONTEXT ( ( #92, #73, #91 ) ) REPRESENTATION_CONTEXT ( 'NONE', 'WORKASPACE' ) );
#87 = CARTESIAN_POINT ( 'NONE',  ( 3.175000000000001155, 3.888253587292847561E-16, 2.000000000000000000 ) ) ;
#88 = AXIS2_PLACEMENT_3D ( 'NONE', #134, #22, #31 ) ;
#89 = ADVANCED_FACE ( 'NONE', ( #30 ), #56, .T. ) ;
#90 = COORDINATED_UNIVERSAL_TIME_OFFSET ( 5, 0, .BEHIND. ) ;
#91 =( NAMED_UNIT ( * ) SI_UNIT ( $, .STERADIAN. ) SOLID_ANGLE_UNIT ( ) );
#92 =( LENGTH_UNIT ( ) NAMED_UNIT ( * ) SI_UNIT ( .MILLI., .METRE. ) );
#93 = LOCAL_TIME ( 13, 13, 3.000000000000000000, #90 ) ;
#94 = COORDINATED_UNIVERSAL_TIME_OFFSET ( 5, 0, .BEHIND. ) ;
#95 = ORIENTED_EDGE ( 'NONE', *, *, #160, .T. ) ;
#96 = AXIS2_PLACEMENT_3D ( 'NONE', #142, #174, #111 ) ;
#97 = ORIENTED_EDGE ( 'NONE', *, *, #101, .F. ) ;
#98 = CARTESIAN_POINT ( 'NONE',  ( -3.175000000000001155, 0.000000000000000000, 0.000000000000000000 ) ) ;
#99 = MANIFOLD_SOLID_BREP ( 'Boss-Extrude1', #153 ) ;
#100 = AXIS2_PLACEMENT_3D ( 'NONE', #29, #112, #82 ) ;
#101 = EDGE_CURVE ( 'NONE', #68, #85, #125, .T. ) ;
#102 = CYLINDRICAL_SURFACE ( 'NONE', #123, 3.175000000000001155 ) ;
#103 = APPLICATION_PROTOCOL_DEFINITION ( 'international standard', 'config_control_design', 1994, #20 ) ;
#104 = APPROVAL_STATUS ( 'not_yet_approved' ) ;
#105 = PERSON_AND_ORGANIZATION_ROLE ( 'creator' ) ;
#106 = EDGE_LOOP ( 'NONE', ( #52, #40, #173, #95 ) ) ;
#107 = VERTEX_POINT ( 'NONE', #126 ) ;
#108 = CALENDAR_DATE ( 2022, 15, 3 ) ;
#109 = PRODUCT ( 'Web Model 45567_20913', 'Web Model 45567_20913', '', ( #131 ) ) ;
#110 = CIRCLE ( 'NONE', #37, 3.175000000000001155 ) ;
#111 = DIRECTION ( 'NONE',  ( 1.000000000000000000, 0.000000000000000000, 0.000000000000000000 ) ) ;
#112 = DIRECTION ( 'NONE',  ( 0.000000000000000000, 0.000000000000000000, 1.000000000000000000 ) ) ;
#113 = CARTESIAN_POINT ( 'NONE',  ( 0.000000000000000000, 0.000000000000000000, 2.000000000000000000 ) ) ;
#114 = CC_DESIGN_PERSON_AND_ORGANIZATION_ASSIGNMENT ( #2, #105, ( #21 ) ) ;
#115 = VECTOR ( 'NONE', #63, 1000.000000000000000 ) ;
#116 = CALENDAR_DATE ( 2022, 15, 3 ) ;
#117 = DATE_AND_TIME ( #116, #47 ) ;
#118 = APPROVAL_ROLE ( '' ) ;
#119 = AXIS2_PLACEMENT_3D ( 'NONE', #45, #120, #147 ) ;
#120 = DIRECTION ( 'NONE',  ( 0.000000000000000000, 0.000000000000000000, 1.000000000000000000 ) ) ;
#121 = APPROVAL_ROLE ( '' ) ;
#122 = ORIENTED_EDGE ( 'NONE', *, *, #84, .T. ) ;
#123 = AXIS2_PLACEMENT_3D ( 'NONE', #74, #60, #151 ) ;
#124 = AXIS2_PLACEMENT_3D ( 'NONE', #113, #159, #42 ) ;
#125 = LINE ( 'NONE', #12, #161 ) ;
#126 = CARTESIAN_POINT ( 'NONE',  ( 3.175000000000001155, 3.888253587292847561E-16, 0.000000000000000000 ) ) ;
#127 = PRODUCT_RELATED_PRODUCT_CATEGORY ( 'detail', '', ( #109 ) ) ;
#128 = PERSON_AND_ORGANIZATION_ROLE ( 'creator' ) ;
#129 = DATE_AND_TIME ( #79, #93 ) ;
#130 = DATE_TIME_ROLE ( 'creation_date' ) ;
#131 = MECHANICAL_CONTEXT ( 'NONE', #20, 'mechanical' ) ;
#132 = APPROVAL_PERSON_ORGANIZATION ( #17, #13, #118 ) ;
#133 = COORDINATED_UNIVERSAL_TIME_OFFSET ( 5, 0, .BEHIND. ) ;
#134 = CARTESIAN_POINT ( 'NONE',  ( 0.000000000000000000, 0.000000000000000000, 0.000000000000000000 ) ) ;
#135 = APPROVAL_STATUS ( 'not_yet_approved' ) ;
#136 = ORIENTED_EDGE ( 'NONE', *, *, #9, .T. ) ;
#137 = CC_DESIGN_DATE_AND_TIME_ASSIGNMENT ( #152, #130, ( #75 ) ) ;
#138 = PLANE ( 'NONE',  #1 ) ;
#139 = PRODUCT_DEFINITION_SHAPE ( 'NONE', 'NONE',  #75 ) ;
#140 = EDGE_LOOP ( 'NONE', ( #158, #136, #167, #97 ) ) ;
#141 = EDGE_CURVE ( 'NONE', #68, #65, #70, .T. ) ;
#142 = CARTESIAN_POINT ( 'NONE',  ( 0.000000000000000000, 0.000000000000000000, 0.000000000000000000 ) ) ;
#143 = CARTESIAN_POINT ( 'NONE',  ( 0.000000000000000000, 0.000000000000000000, 2.000000000000000000 ) ) ;
#144 = FACE_OUTER_BOUND ( 'NONE', #41, .T. ) ;
#145 = CC_DESIGN_APPROVAL ( #43, ( #75 ) ) ;
#146 = CC_DESIGN_SECURITY_CLASSIFICATION ( #59, ( #21 ) ) ;
#147 = DIRECTION ( 'NONE',  ( 1.000000000000000000, 0.000000000000000000, 0.000000000000000000 ) ) ;
#148 = PERSON_AND_ORGANIZATION ( #156, #27 ) ;
#149 = COORDINATED_UNIVERSAL_TIME_OFFSET ( 5, 0, .BEHIND. ) ;
#150 = CC_DESIGN_PERSON_AND_ORGANIZATION_ASSIGNMENT ( #35, #128, ( #75 ) ) ;
#151 = DIRECTION ( 'NONE',  ( -1.000000000000000000, 0.000000000000000000, 0.000000000000000000 ) ) ;
#152 = DATE_AND_TIME ( #71, #26 ) ;
#153 = CLOSED_SHELL ( 'NONE', ( #89, #175, #23, #164 ) ) ;
#154 = COORDINATED_UNIVERSAL_TIME_OFFSET ( 5, 0, .BEHIND. ) ;
#155 = FACE_OUTER_BOUND ( 'NONE', #83, .T. ) ;
#156 = PERSON ( 'UNSPECIFIED', 'UNSPECIFIED', 'UNSPECIFIED', ('UNSPECIFIED'), ('UNSPECIFIED'), ('UNSPECIFIED') ) ;
#157 = DESIGN_CONTEXT ( 'detailed design', #49, 'design' ) ;
#158 = ORIENTED_EDGE ( 'NONE', *, *, #84, .F. ) ;
#159 = DIRECTION ( 'NONE',  ( -0.000000000000000000, -0.000000000000000000, -1.000000000000000000 ) ) ;
#160 = EDGE_CURVE ( 'NONE', #85, #107, #171, .T. ) ;
#161 = VECTOR ( 'NONE', #69, 1000.000000000000000 ) ;
#162 = DIRECTION ( 'NONE',  ( 0.000000000000000000, 0.000000000000000000, 1.000000000000000000 ) ) ;
#163 = CC_DESIGN_APPROVAL ( #13, ( #21 ) ) ;
#164 = ADVANCED_FACE ( 'NONE', ( #144 ), #78, .F. ) ;
#165 = DATE_AND_TIME ( #64, #55 ) ;
#166 = SECURITY_CLASSIFICATION_LEVEL ( 'unclassified' ) ;
#167 = ORIENTED_EDGE ( 'NONE', *, *, #38, .T. ) ;
#168 = PERSON_AND_ORGANIZATION ( #156, #27 ) ;
#169 = CC_DESIGN_DATE_AND_TIME_ASSIGNMENT ( #129, #62, ( #59 ) ) ;
#170 = PERSON_AND_ORGANIZATION ( #156, #27 ) ;
#171 = CIRCLE ( 'NONE', #88, 3.175000000000001155 ) ;
#172 = CARTESIAN_POINT ( 'NONE',  ( 3.175000000000001155, 3.888253587292847561E-16, 2.000000000000000000 ) ) ;
#173 = ORIENTED_EDGE ( 'NONE', *, *, #101, .T. ) ;
#174 = DIRECTION ( 'NONE',  ( 0.000000000000000000, 0.000000000000000000, 1.000000000000000000 ) ) ;
#175 = ADVANCED_FACE ( 'NONE', ( #36 ), #102, .T. ) ;
ENDSEC;
END-ISO-10303-21;
