ISO-10303-21;
HEADER;
FILE_DESCRIPTION (( 'STEP AP203' ),
    '1' );
FILE_NAME ('Web Model 30648_44063.step',
    '2017-04-29T14:34:52',
    ( '' ),
    ( '' ),
    'SwSTEP 2.0',
    'SolidWorks 2016',
    '' );
FILE_SCHEMA (( 'CONFIG_CONTROL_DESIGN' ));
ENDSEC;

DATA;
#1 = MECHANICAL_CONTEXT ( 'NONE', #166, 'mechanical' ) ;
#2 = MANIFOLD_SOLID_BREP ( 'Extrude1', #160 ) ;
#3 = APPROVAL_STATUS ( 'not_yet_approved' ) ;
#4 = ADVANCED_FACE ( 'NONE', ( #111 ), #45, .T. ) ;
#5 = CC_DESIGN_DATE_AND_TIME_ASSIGNMENT ( #18, #82, ( #165 ) ) ;
#6 = CALENDAR_DATE ( 2017, 29, 4 ) ;
#7 = EDGE_LOOP ( 'NONE', ( #38, #70, #142, #50 ) ) ;
#8 = PERSON_AND_ORGANIZATION ( #92, #168 ) ;
#9 = CARTESIAN_POINT ( 'NONE',  ( -25.75000000000000000, 0.0000000000000000000, 1.500000000000000000 ) ) ;
#10 = DIRECTION ( 'NONE',  ( 0.0000000000000000000, 0.0000000000000000000, 1.000000000000000000 ) ) ;
#11 = CARTESIAN_POINT ( 'NONE',  ( 0.0000000000000000000, 0.0000000000000000000, 0.0000000000000000000 ) ) ;
#12 = APPROVAL ( #3, 'UNSPECIFIED' ) ;
#13 = APPLICATION_CONTEXT ( 'configuration controlled 3d designs of mechanical parts and assemblies' ) ;
#14 = APPROVAL_PERSON_ORGANIZATION ( #8, #12, #94 ) ;
#15 = COORDINATED_UNIVERSAL_TIME_OFFSET ( 5, 0, .BEHIND. ) ;
#16 = LOCAL_TIME ( 10, 34, 52.00000000000000000, #15 ) ;
#17 = AXIS2_PLACEMENT_3D ( 'NONE', #75, #77, #59 ) ;
#18 = DATE_AND_TIME ( #20, #25 ) ;
#19 = CC_DESIGN_APPROVAL ( #12, ( #165 ) ) ;
#20 = CALENDAR_DATE ( 2017, 29, 4 ) ;
#21 = PERSON_AND_ORGANIZATION ( #92, #168 ) ;
#22 = DIRECTION ( 'NONE',  ( -1.000000000000000000, 0.0000000000000000000, 0.0000000000000000000 ) ) ;
#23 = PERSON_AND_ORGANIZATION ( #92, #168 ) ;
#24 = DIRECTION ( 'NONE',  ( 1.000000000000000000, 0.0000000000000000000, 0.0000000000000000000 ) ) ;
#25 = LOCAL_TIME ( 10, 34, 52.00000000000000000, #29 ) ;
#26 = APPROVAL_STATUS ( 'not_yet_approved' ) ;
#27 = PERSON_AND_ORGANIZATION_ROLE ( 'creator' ) ;
#28 = AXIS2_PLACEMENT_3D ( 'NONE', #47, #115, #87 ) ;
#29 = COORDINATED_UNIVERSAL_TIME_OFFSET ( 5, 0, .BEHIND. ) ;
#30 = LINE ( 'NONE', #174, #74 ) ;
#31 = EDGE_LOOP ( 'NONE', ( #72, #154, #145, #157 ) ) ;
#32 = CC_DESIGN_SECURITY_CLASSIFICATION ( #165, ( #113 ) ) ;
#33 = CIRCLE ( 'NONE', #71, 25.75000000000000000 ) ;
#34 = DESIGN_CONTEXT ( 'detailed design', #13, 'design' ) ;
#35 = FACE_OUTER_BOUND ( 'NONE', #31, .T. ) ;
#36 = FACE_OUTER_BOUND ( 'NONE', #139, .T. ) ;
#37 = AXIS2_PLACEMENT_3D ( 'NONE', #91, #10, #103 ) ;
#38 = ORIENTED_EDGE ( 'NONE', *, *, #153, .F. ) ;
#39 = PLANE ( 'NONE',  #46 ) ;
#40 = FACE_OUTER_BOUND ( 'NONE', #89, .T. ) ;
#41 =( NAMED_UNIT ( * ) PLANE_ANGLE_UNIT ( ) SI_UNIT ( $, .RADIAN. ) );
#42 = PRODUCT_RELATED_PRODUCT_CATEGORY ( 'detail', '', ( #80 ) ) ;
#43 = CIRCLE ( 'NONE', #37, 25.75000000000000000 ) ;
#44 = APPROVAL_STATUS ( 'not_yet_approved' ) ;
#45 = CYLINDRICAL_SURFACE ( 'NONE', #17, 25.75000000000000000 ) ;
#46 = AXIS2_PLACEMENT_3D ( 'NONE', #129, #48, #148 ) ;
#47 = CARTESIAN_POINT ( 'NONE',  ( 0.0000000000000000000, 0.0000000000000000000, 0.0000000000000000000 ) ) ;
#48 = DIRECTION ( 'NONE',  ( 0.0000000000000000000, 0.0000000000000000000, 1.000000000000000000 ) ) ;
#49 = CARTESIAN_POINT ( 'NONE',  ( 0.0000000000000000000, 0.0000000000000000000, 0.0000000000000000000 ) ) ;
#50 = ORIENTED_EDGE ( 'NONE', *, *, #171, .T. ) ;
#51 = PERSON_AND_ORGANIZATION_ROLE ( 'creator' ) ;
#52 = AXIS2_PLACEMENT_3D ( 'NONE', #149, #62, #163 ) ;
#53 = ADVANCED_FACE ( 'NONE', ( #36 ), #114, .F. ) ;
#54 = COORDINATED_UNIVERSAL_TIME_OFFSET ( 5, 0, .BEHIND. ) ;
#55 = LOCAL_TIME ( 10, 34, 52.00000000000000000, #54 ) ;
#56 = DATE_AND_TIME ( #57, #64 ) ;
#57 = CALENDAR_DATE ( 2017, 29, 4 ) ;
#58 = AXIS2_PLACEMENT_3D ( 'NONE', #61, #78, #22 ) ;
#59 = DIRECTION ( 'NONE',  ( -1.000000000000000000, 0.0000000000000000000, 0.0000000000000000000 ) ) ;
#60 = APPROVAL_PERSON_ORGANIZATION ( #162, #159, #110 ) ;
#61 = CARTESIAN_POINT ( 'NONE',  ( 0.0000000000000000000, 0.0000000000000000000, 1.500000000000000000 ) ) ;
#62 = DIRECTION ( 'NONE',  ( 0.0000000000000000000, 0.0000000000000000000, 1.000000000000000000 ) ) ;
#63 = CARTESIAN_POINT ( 'NONE',  ( 0.0000000000000000000, 0.0000000000000000000, 1.500000000000000000 ) ) ;
#64 = LOCAL_TIME ( 10, 34, 52.00000000000000000, #66 ) ;
#65 = SECURITY_CLASSIFICATION_LEVEL ( 'unclassified' ) ;
#66 = COORDINATED_UNIVERSAL_TIME_OFFSET ( 5, 0, .BEHIND. ) ;
#67 = VERTEX_POINT ( 'NONE', #147 ) ;
#68 = ORIENTED_EDGE ( 'NONE', *, *, #161, .T. ) ;
#69 = PERSON_AND_ORGANIZATION ( #92, #168 ) ;
#70 = ORIENTED_EDGE ( 'NONE', *, *, #161, .F. ) ;
#71 = AXIS2_PLACEMENT_3D ( 'NONE', #63, #164, #79 ) ;
#72 = ORIENTED_EDGE ( 'NONE', *, *, #141, .F. ) ;
#73 = ORIENTED_EDGE ( 'NONE', *, *, #127, .F. ) ;
#74 = VECTOR ( 'NONE', #90, 1000.000000000000000 ) ;
#75 = CARTESIAN_POINT ( 'NONE',  ( 0.0000000000000000000, 0.0000000000000000000, 1.500000000000000000 ) ) ;
#76 = VERTEX_POINT ( 'NONE', #9 ) ;
#77 = DIRECTION ( 'NONE',  ( -0.0000000000000000000, -0.0000000000000000000, -1.000000000000000000 ) ) ;
#78 = DIRECTION ( 'NONE',  ( -0.0000000000000000000, -0.0000000000000000000, -1.000000000000000000 ) ) ;
#79 = DIRECTION ( 'NONE',  ( 1.000000000000000000, 0.0000000000000000000, 0.0000000000000000000 ) ) ;
#80 = PRODUCT ( 'Web Model 30648_44063', 'Web Model 30648_44063', '', ( #1 ) ) ;
#81 = DIRECTION ( 'NONE',  ( 1.000000000000000000, 0.0000000000000000000, 0.0000000000000000000 ) ) ;
#82 = DATE_TIME_ROLE ( 'classification_date' ) ;
#83 = AXIS2_PLACEMENT_3D ( 'NONE', #11, #106, #24 ) ;
#84 = CC_DESIGN_APPROVAL ( #159, ( #146 ) ) ;
#85 =( GEOMETRIC_REPRESENTATION_CONTEXT ( 3 ) GLOBAL_UNCERTAINTY_ASSIGNED_CONTEXT ( ( #172 ) ) GLOBAL_UNIT_ASSIGNED_CONTEXT ( ( #117, #41, #133 ) ) REPRESENTATION_CONTEXT ( 'NONE', 'WORKASPACE' ) );
#86 = DATE_AND_TIME ( #112, #125 ) ;
#87 = DIRECTION ( 'NONE',  ( 1.000000000000000000, 0.0000000000000000000, -0.0000000000000000000 ) ) ;
#88 = DATE_AND_TIME ( #156, #16 ) ;
#89 = EDGE_LOOP ( 'NONE', ( #68, #143 ) ) ;
#90 = DIRECTION ( 'NONE',  ( -0.0000000000000000000, -0.0000000000000000000, -1.000000000000000000 ) ) ;
#91 = CARTESIAN_POINT ( 'NONE',  ( 0.0000000000000000000, 0.0000000000000000000, 1.500000000000000000 ) ) ;
#92 = PERSON ( 'UNSPECIFIED', 'UNSPECIFIED', 'UNSPECIFIED', ('UNSPECIFIED'), ('UNSPECIFIED'), ('UNSPECIFIED') ) ;
#93 = PERSON_AND_ORGANIZATION_ROLE ( 'design_owner' ) ;
#94 = APPROVAL_ROLE ( '' ) ;
#95 = APPROVAL_DATE_TIME ( #88, #12 ) ;
#96 = CC_DESIGN_PERSON_AND_ORGANIZATION_ASSIGNMENT ( #21, #27, ( #146 ) ) ;
#97 = VECTOR ( 'NONE', #116, 1000.000000000000000 ) ;
#98 = LINE ( 'NONE', #130, #97 ) ;
#99 = APPROVAL_DATE_TIME ( #56, #159 ) ;
#100 = CIRCLE ( 'NONE', #52, 25.75000000000000000 ) ;
#101 = VERTEX_POINT ( 'NONE', #102 ) ;
#102 = CARTESIAN_POINT ( 'NONE',  ( 25.75000000000000000, 3.153465507804434400E-015, 0.0000000000000000000 ) ) ;
#103 = DIRECTION ( 'NONE',  ( 1.000000000000000000, 0.0000000000000000000, 0.0000000000000000000 ) ) ;
#104 = CC_DESIGN_DATE_AND_TIME_ASSIGNMENT ( #128, #119, ( #146 ) ) ;
#105 = ADVANCED_BREP_SHAPE_REPRESENTATION ( 'Web Model 30648_44063', ( #2, #124 ), #85 ) ;
#106 = DIRECTION ( 'NONE',  ( 0.0000000000000000000, 0.0000000000000000000, 1.000000000000000000 ) ) ;
#107 = APPLICATION_PROTOCOL_DEFINITION ( 'international standard', 'config_control_design', 1994, #13 ) ;
#108 = CYLINDRICAL_SURFACE ( 'NONE', #58, 25.75000000000000000 ) ;
#109 = ADVANCED_FACE ( 'NONE', ( #40 ), #39, .T. ) ;
#110 = APPROVAL_ROLE ( '' ) ;
#111 = FACE_OUTER_BOUND ( 'NONE', #7, .T. ) ;
#112 = CALENDAR_DATE ( 2017, 29, 4 ) ;
#113 = PRODUCT_DEFINITION_FORMATION_WITH_SPECIFIED_SOURCE ( 'ANY', '', #80, .NOT_KNOWN. ) ;
#114 = PLANE ( 'NONE',  #28 ) ;
#115 = DIRECTION ( 'NONE',  ( 0.0000000000000000000, 0.0000000000000000000, 1.000000000000000000 ) ) ;
#116 = DIRECTION ( 'NONE',  ( -0.0000000000000000000, -0.0000000000000000000, -1.000000000000000000 ) ) ;
#117 =( LENGTH_UNIT ( ) NAMED_UNIT ( * ) SI_UNIT ( .MILLI., .METRE. ) );
#118 = EDGE_CURVE ( 'NONE', #76, #150, #30, .T. ) ;
#119 = DATE_TIME_ROLE ( 'creation_date' ) ;
#120 = ADVANCED_FACE ( 'NONE', ( #35 ), #108, .T. ) ;
#121 = APPROVAL_DATE_TIME ( #86, #122 ) ;
#122 = APPROVAL ( #44, 'UNSPECIFIED' ) ;
#123 = PERSON_AND_ORGANIZATION ( #92, #168 ) ;
#124 = AXIS2_PLACEMENT_3D ( 'NONE', #49, #151, #81 ) ;
#125 = LOCAL_TIME ( 10, 34, 52.00000000000000000, #126 ) ;
#126 = COORDINATED_UNIVERSAL_TIME_OFFSET ( 5, 0, .BEHIND. ) ;
#127 = EDGE_CURVE ( 'NONE', #101, #150, #100, .T. ) ;
#128 = DATE_AND_TIME ( #6, #55 ) ;
#129 = CARTESIAN_POINT ( 'NONE',  ( 0.0000000000000000000, 0.0000000000000000000, 1.500000000000000000 ) ) ;
#130 = CARTESIAN_POINT ( 'NONE',  ( 25.75000000000000000, 3.153465507804434400E-015, 1.500000000000000000 ) ) ;
#131 = CIRCLE ( 'NONE', #83, 25.75000000000000000 ) ;
#132 = CC_DESIGN_APPROVAL ( #122, ( #113 ) ) ;
#133 =( NAMED_UNIT ( * ) SI_UNIT ( $, .STERADIAN. ) SOLID_ANGLE_UNIT ( ) );
#134 = APPROVAL_PERSON_ORGANIZATION ( #137, #122, #136 ) ;
#135 = SHAPE_DEFINITION_REPRESENTATION ( #169, #105 ) ;
#136 = APPROVAL_ROLE ( '' ) ;
#137 = PERSON_AND_ORGANIZATION ( #92, #168 ) ;
#138 = CC_DESIGN_PERSON_AND_ORGANIZATION_ASSIGNMENT ( #170, #93, ( #80 ) ) ;
#139 = EDGE_LOOP ( 'NONE', ( #140, #73 ) ) ;
#140 = ORIENTED_EDGE ( 'NONE', *, *, #171, .F. ) ;
#141 = EDGE_CURVE ( 'NONE', #67, #76, #43, .T. ) ;
#142 = ORIENTED_EDGE ( 'NONE', *, *, #118, .T. ) ;
#143 = ORIENTED_EDGE ( 'NONE', *, *, #141, .T. ) ;
#144 = CC_DESIGN_PERSON_AND_ORGANIZATION_ASSIGNMENT ( #123, #51, ( #113 ) ) ;
#145 = ORIENTED_EDGE ( 'NONE', *, *, #127, .T. ) ;
#146 = PRODUCT_DEFINITION ( 'UNKNOWN', '', #113, #34 ) ;
#147 = CARTESIAN_POINT ( 'NONE',  ( 25.75000000000000000, 3.153465507804434400E-015, 1.500000000000000000 ) ) ;
#148 = DIRECTION ( 'NONE',  ( 1.000000000000000000, 0.0000000000000000000, -0.0000000000000000000 ) ) ;
#149 = CARTESIAN_POINT ( 'NONE',  ( 0.0000000000000000000, 0.0000000000000000000, 0.0000000000000000000 ) ) ;
#150 = VERTEX_POINT ( 'NONE', #175 ) ;
#151 = DIRECTION ( 'NONE',  ( 0.0000000000000000000, 0.0000000000000000000, 1.000000000000000000 ) ) ;
#152 = APPLICATION_PROTOCOL_DEFINITION ( 'international standard', 'config_control_design', 1994, #166 ) ;
#153 = EDGE_CURVE ( 'NONE', #67, #101, #98, .T. ) ;
#154 = ORIENTED_EDGE ( 'NONE', *, *, #153, .T. ) ;
#155 = PERSON_AND_ORGANIZATION_ROLE ( 'design_supplier' ) ;
#156 = CALENDAR_DATE ( 2017, 29, 4 ) ;
#157 = ORIENTED_EDGE ( 'NONE', *, *, #118, .F. ) ;
#158 = CC_DESIGN_PERSON_AND_ORGANIZATION_ASSIGNMENT ( #69, #155, ( #113 ) ) ;
#159 = APPROVAL ( #26, 'UNSPECIFIED' ) ;
#160 = CLOSED_SHELL ( 'NONE', ( #120, #4, #109, #53 ) ) ;
#161 = EDGE_CURVE ( 'NONE', #76, #67, #33, .T. ) ;
#162 = PERSON_AND_ORGANIZATION ( #92, #168 ) ;
#163 = DIRECTION ( 'NONE',  ( 1.000000000000000000, 0.0000000000000000000, 0.0000000000000000000 ) ) ;
#164 = DIRECTION ( 'NONE',  ( 0.0000000000000000000, 0.0000000000000000000, 1.000000000000000000 ) ) ;
#165 = SECURITY_CLASSIFICATION ( '', '', #65 ) ;
#166 = APPLICATION_CONTEXT ( 'configuration controlled 3d designs of mechanical parts and assemblies' ) ;
#167 = PERSON_AND_ORGANIZATION_ROLE ( 'classification_officer' ) ;
#168 = ORGANIZATION ( 'UNSPECIFIED', 'UNSPECIFIED', '' ) ;
#169 = PRODUCT_DEFINITION_SHAPE ( 'NONE', 'NONE',  #146 ) ;
#170 = PERSON_AND_ORGANIZATION ( #92, #168 ) ;
#171 = EDGE_CURVE ( 'NONE', #150, #101, #131, .T. ) ;
#172 = UNCERTAINTY_MEASURE_WITH_UNIT (LENGTH_MEASURE( 1.000000000000000100E-005 ), #117, 'distance_accuracy_value', 'NONE');
#173 = CC_DESIGN_PERSON_AND_ORGANIZATION_ASSIGNMENT ( #23, #167, ( #165 ) ) ;
#174 = CARTESIAN_POINT ( 'NONE',  ( -25.75000000000000000, 0.0000000000000000000, 1.500000000000000000 ) ) ;
#175 = CARTESIAN_POINT ( 'NONE',  ( -25.75000000000000000, 0.0000000000000000000, 0.0000000000000000000 ) ) ;
ENDSEC;
END-ISO-10303-21;
