ISO-10303-21;
HEADER;
FILE_DESCRIPTION (( 'STEP AP203' ),
    '1' );
FILE_NAME ('20132-E0W.STEP',
    '2019-07-16T11:11:22',
    ( '' ),
    ( '' ),
    'SwSTEP 2.0',
    'SolidWorks 2018',
    '' );
FILE_SCHEMA (( 'CONFIG_CONTROL_DESIGN' ));
ENDSEC;

DATA;
#1 = AXIS2_PLACEMENT_3D ( 'NONE', #252, #248, #154 ) ;
#2 = FACE_OUTER_BOUND ( 'NONE', #194, .T. ) ;
#3 = APPLICATION_CONTEXT ( 'configuration controlled 3d designs of mechanical parts and assemblies' ) ;
#4 = PERSON_AND_ORGANIZATION_ROLE ( 'classification_officer' ) ;
#5 = CC_DESIGN_DATE_AND_TIME_ASSIGNMENT ( #32, #279, ( #89 ) ) ;
#6 = EDGE_CURVE ( 'NONE', #116, #82, #128, .T. ) ;
#7 = CARTESIAN_POINT ( 'NONE',  ( 1.555301434917137101E-16, -1.269999999999998908, -0.1256880254061805147 ) ) ;
#8 = DATE_AND_TIME ( #27, #187 ) ;
#9 = FACE_OUTER_BOUND ( 'NONE', #231, .T. ) ;
#10 = DIRECTION ( 'NONE',  ( 0.0000000000000000000, 0.4552343997224351790, -0.8903716310110931786 ) ) ;
#11 = DIRECTION ( 'NONE',  ( 0.0000000000000000000, 1.000000000000000000, 3.122502256758252770E-16 ) ) ;
#12 = PLANE ( 'NONE',  #223 ) ;
#13 = DIRECTION ( 'NONE',  ( 0.0000000000000000000, -1.000000000000000000, -3.122502256758252770E-16 ) ) ;
#14 = PERSON_AND_ORGANIZATION ( #182, #244 ) ;
#15 = VERTEX_POINT ( 'NONE', #100 ) ;
#16 = DIRECTION ( 'NONE',  ( -0.0000000000000000000, 3.061515884555942652E-16, -1.000000000000000000 ) ) ;
#17 = CARTESIAN_POINT ( 'NONE',  ( 0.0000000000000000000, 1.369109903573417719E-16, -0.3050000000000001599 ) ) ;
#18 = VECTOR ( 'NONE', #241, 100.0000000000000000 ) ;
#19 = EDGE_CURVE ( 'NONE', #291, #108, #296, .T. ) ;
#20 = CARTESIAN_POINT ( 'NONE',  ( 0.0000000000000000000, 2.157756395435016991E-16, -1.863999999999998991 ) ) ;
#21 = DATE_AND_TIME ( #90, #192 ) ;
#22 = EDGE_LOOP ( 'NONE', ( #149, #160, #163, #175 ) ) ;
#23 = VERTEX_POINT ( 'NONE', #83 ) ;
#24 = EDGE_CURVE ( 'NONE', #114, #15, #130, .T. ) ;
#25 = ADVANCED_FACE ( 'NONE', ( #299 ), #234, .T. ) ;
#26 = SPHERICAL_SURFACE ( 'NONE', #238, 2.169000000000003148 ) ;
#27 = CALENDAR_DATE ( 2019, 16, 7 ) ;
#28 = ORIENTED_EDGE ( 'NONE', *, *, #189, .T. ) ;
#29 = PERSON_AND_ORGANIZATION_ROLE ( 'creator' ) ;
#30 = APPLICATION_PROTOCOL_DEFINITION ( 'international standard', 'config_control_design', 1994, #3 ) ;
#31 = CARTESIAN_POINT ( 'NONE',  ( 1.555301434917137101E-16, -1.269999999999998685, -0.3050000000000003819 ) ) ;
#32 = DATE_AND_TIME ( #202, #152 ) ;
#33 = ORIENTED_EDGE ( 'NONE', *, *, #287, .F. ) ;
#34 = ADVANCED_BREP_SHAPE_REPRESENTATION ( '20132-E0W', ( #86, #111 ), #71 ) ;
#35 = PRODUCT_RELATED_PRODUCT_CATEGORY ( 'detail', '', ( #261 ) ) ;
#36 = ORIENTED_EDGE ( 'NONE', *, *, #96, .F. ) ;
#37 = EDGE_CURVE ( 'NONE', #246, #23, #290, .T. ) ;
#38 = DIRECTION ( 'NONE',  ( -0.0000000000000000000, 3.061515884555934764E-16, -1.000000000000000000 ) ) ;
#39 = AXIS2_PLACEMENT_3D ( 'NONE', #121, #288, #79 ) ;
#40 = PERSON_AND_ORGANIZATION ( #182, #244 ) ;
#41 = FACE_OUTER_BOUND ( 'NONE', #155, .T. ) ;
#42 = EDGE_LOOP ( 'NONE', ( #229, #267, #235, #87 ) ) ;
#43 = ORIENTED_EDGE ( 'NONE', *, *, #232, .F. ) ;
#44 = AXIS2_PLACEMENT_3D ( 'NONE', #166, #164, #239 ) ;
#45 = EDGE_CURVE ( 'NONE', #108, #291, #72, .T. ) ;
#46 = LINE ( 'NONE', #53, #276 ) ;
#47 = VECTOR ( 'NONE', #213, 100.0000000000000000 ) ;
#48 = CLOSED_SHELL ( 'NONE', ( #161, #50, #258, #132, #69, #181, #25, #275, #49 ) ) ;
#49 = ADVANCED_FACE ( 'NONE', ( #193 ), #70, .T. ) ;
#50 = ADVANCED_FACE ( 'NONE', ( #227 ), #91, .T. ) ;
#51 = EDGE_CURVE ( 'NONE', #199, #23, #153, .T. ) ;
#52 = CARTESIAN_POINT ( 'NONE',  ( 0.0000000000000000000, -1.249999999999999778, -0.3050000000000005485 ) ) ;
#53 = CARTESIAN_POINT ( 'NONE',  ( 1.530808498934191324E-16, 1.250000000000000000, -0.3049999999999997713 ) ) ;
#54 = DIRECTION ( 'NONE',  ( 0.0000000000000000000, 1.000000000000000000, 3.073328992872298832E-16 ) ) ;
#55 = DATE_AND_TIME ( #107, #68 ) ;
#56 = CYLINDRICAL_SURFACE ( 'NONE', #177, 1.269999999999998908 ) ;
#57 = ORIENTED_EDGE ( 'NONE', *, *, #96, .T. ) ;
#58 = UNCERTAINTY_MEASURE_WITH_UNIT (LENGTH_MEASURE( 1.000000000000000082E-05 ), #242, 'distance_accuracy_value', 'NONE');
#59 = CARTESIAN_POINT ( 'NONE',  ( 0.0000000000000000000, 1.369109903573417473E-16, -0.3049999999999999933 ) ) ;
#60 = PRODUCT_DEFINITION ( 'UNKNOWN', '', #196, #254 ) ;
#61 = DIRECTION ( 'NONE',  ( 0.0000000000000000000, 1.000000000000000000, 3.073328992872298832E-16 ) ) ;
#62 = EDGE_CURVE ( 'NONE', #116, #15, #131, .T. ) ;
#63 = EDGE_LOOP ( 'NONE', ( #36, #43, #218, #134 ) ) ;
#64 = ORIENTED_EDGE ( 'NONE', *, *, #188, .F. ) ;
#65 = DIRECTION ( 'NONE',  ( 1.000000000000000000, 1.224646799147353207E-16, 3.749275628560213069E-32 ) ) ;
#66 = CARTESIAN_POINT ( 'NONE',  ( 0.0000000000000000000, 8.201434450633447634E-17, -0.1256880254061797930 ) ) ;
#67 = EDGE_CURVE ( 'NONE', #291, #114, #273, .T. ) ;
#68 = LOCAL_TIME ( 7, 11, 22.00000000000000000, #295 ) ;
#69 = ADVANCED_FACE ( 'NONE', ( #2 ), #12, .T. ) ;
#70 = CONICAL_SURFACE ( 'NONE', #271, 1.269999999999998908, 0.4726354569634615976 ) ;
#71 =( GEOMETRIC_REPRESENTATION_CONTEXT ( 3 ) GLOBAL_UNCERTAINTY_ASSIGNED_CONTEXT ( ( #58 ) ) GLOBAL_UNIT_ASSIGNED_CONTEXT ( ( #242, #73, #122 ) ) REPRESENTATION_CONTEXT ( 'NONE', 'WORKASPACE' ) );
#72 = CIRCLE ( 'NONE', #256, 1.250000000000000000 ) ;
#73 =( NAMED_UNIT ( * ) PLANE_ANGLE_UNIT ( ) SI_UNIT ( $, .RADIAN. ) );
#74 = CARTESIAN_POINT ( 'NONE',  ( 0.0000000000000000000, -3.154542104491525597E-16, 0.3050000000000042122 ) ) ;
#75 = DIRECTION ( 'NONE',  ( 0.0000000000000000000, 1.000000000000000000, 3.061515884555942652E-16 ) ) ;
#76 = CARTESIAN_POINT ( 'NONE',  ( 0.0000000000000000000, 1.269999999999998908, -0.1256880254061793767 ) ) ;
#77 = DIRECTION ( 'NONE',  ( 0.0000000000000000000, 1.000000000000000000, 3.199121209731312876E-16 ) ) ;
#78 = DIRECTION ( 'NONE',  ( -0.0000000000000000000, 3.061515884555942652E-16, -1.000000000000000000 ) ) ;
#79 = DIRECTION ( 'NONE',  ( 0.0000000000000000000, 1.000000000000000000, 3.073328992872298832E-16 ) ) ;
#80 = APPROVAL_PERSON_ORGANIZATION ( #133, #185, #93 ) ;
#81 = VECTOR ( 'NONE', #16, 100.0000000000000000 ) ;
#82 = VERTEX_POINT ( 'NONE', #7 ) ;
#83 = CARTESIAN_POINT ( 'NONE',  ( 0.0000000000000000000, 1.253877472074754973, -0.09415472850776010483 ) ) ;
#84 = EDGE_CURVE ( 'NONE', #82, #114, #208, .T. ) ;
#85 = FACE_OUTER_BOUND ( 'NONE', #203, .T. ) ;
#86 = MANIFOLD_SOLID_BREP ( '20132-001-1-solid1', #48 ) ;
#87 = ORIENTED_EDGE ( 'NONE', *, *, #67, .F. ) ;
#88 = CC_DESIGN_APPROVAL ( #137, ( #60 ) ) ;
#89 = SECURITY_CLASSIFICATION ( '', '', #280 ) ;
#90 = CALENDAR_DATE ( 2019, 16, 7 ) ;
#91 = CONICAL_SURFACE ( 'NONE', #157, 1.250000000000000000, 0.7853981633974613796 ) ;
#92 = ORIENTED_EDGE ( 'NONE', *, *, #62, .F. ) ;
#93 = APPROVAL_ROLE ( '' ) ;
#94 = PERSON_AND_ORGANIZATION_ROLE ( 'design_supplier' ) ;
#95 = CARTESIAN_POINT ( 'NONE',  ( 0.0000000000000000000, 2.157756395435016991E-16, -1.863999999999998991 ) ) ;
#96 = EDGE_CURVE ( 'NONE', #199, #82, #102, .T. ) ;
#97 = CARTESIAN_POINT ( 'NONE',  ( 1.555301434917137101E-16, -1.269999999999998685, -0.2850000000000020295 ) ) ;
#98 = DIRECTION ( 'NONE',  ( 0.0000000000000000000, -3.061515884555934764E-16, 1.000000000000000000 ) ) ;
#99 = CALENDAR_DATE ( 2019, 16, 7 ) ;
#100 = CARTESIAN_POINT ( 'NONE',  ( 0.0000000000000000000, 1.269999999999999130, -0.2850000000000012523 ) ) ;
#101 = PERSON_AND_ORGANIZATION ( #182, #244 ) ;
#102 = LINE ( 'NONE', #212, #18 ) ;
#103 = ORIENTED_EDGE ( 'NONE', *, *, #37, .T. ) ;
#104 = DIRECTION ( 'NONE',  ( 0.0000000000000000000, 1.000000000000000000, 3.073328992872298832E-16 ) ) ;
#105 = DIRECTION ( 'NONE',  ( -0.0000000000000000000, 3.061515884555942652E-16, -1.000000000000000000 ) ) ;
#106 = CARTESIAN_POINT ( 'NONE',  ( 0.0000000000000000000, 1.269999999999999130, -0.3049999999999996048 ) ) ;
#107 = CALENDAR_DATE ( 2019, 16, 7 ) ;
#108 = VERTEX_POINT ( 'NONE', #119 ) ;
#109 = ORIENTED_EDGE ( 'NONE', *, *, #188, .T. ) ;
#110 = EDGE_LOOP ( 'NONE', ( #253, #28, #270, #278 ) ) ;
#111 = AXIS2_PLACEMENT_3D ( 'NONE', #165, #214, #237 ) ;
#112 = AXIS2_PLACEMENT_3D ( 'NONE', #169, #219, #294 ) ;
#113 = APPROVAL_PERSON_ORGANIZATION ( #14, #137, #120 ) ;
#114 = VERTEX_POINT ( 'NONE', #97 ) ;
#115 = CC_DESIGN_PERSON_AND_ORGANIZATION_ASSIGNMENT ( #101, #94, ( #196 ) ) ;
#116 = VERTEX_POINT ( 'NONE', #285 ) ;
#117 = DIRECTION ( 'NONE',  ( 1.000000000000000000, 0.0000000000000000000, -0.0000000000000000000 ) ) ;
#118 = DATE_TIME_ROLE ( 'creation_date' ) ;
#119 = CARTESIAN_POINT ( 'NONE',  ( 1.543054966925664336E-16, 1.250000000000000000, -0.3049999999999997713 ) ) ;
#120 = APPROVAL_ROLE ( '' ) ;
#121 = CARTESIAN_POINT ( 'NONE',  ( 0.0000000000000000000, 8.201434450633447634E-17, -0.1256880254061797930 ) ) ;
#122 =( NAMED_UNIT ( * ) SI_UNIT ( $, .STERADIAN. ) SOLID_ANGLE_UNIT ( ) );
#123 = FACE_OUTER_BOUND ( 'NONE', #22, .T. ) ;
#124 = DIRECTION ( 'NONE',  ( 0.0000000000000000000, -0.7071067811865570096, 0.7071067811865380248 ) ) ;
#125 = CARTESIAN_POINT ( 'NONE',  ( 0.0000000000000000000, -3.260653016444682185E-16, -0.09415472850776047953 ) ) ;
#126 = AXIS2_PLACEMENT_3D ( 'NONE', #125, #170, #191 ) ;
#127 = PERSON_AND_ORGANIZATION ( #182, #244 ) ;
#128 = CIRCLE ( 'NONE', #112, 1.269999999999998908 ) ;
#129 = APPROVAL_DATE_TIME ( #21, #197 ) ;
#130 = CIRCLE ( 'NONE', #205, 1.269999999999998908 ) ;
#131 = LINE ( 'NONE', #106, #81 ) ;
#132 = ADVANCED_FACE ( 'NONE', ( #85 ), #138, .T. ) ;
#133 = PERSON_AND_ORGANIZATION ( #182, #244 ) ;
#134 = ORIENTED_EDGE ( 'NONE', *, *, #189, .F. ) ;
#135 = APPLICATION_PROTOCOL_DEFINITION ( 'international standard', 'config_control_design', 1994, #236 ) ;
#136 = APPROVAL_STATUS ( 'not_yet_approved' ) ;
#137 = APPROVAL ( #284, 'UNSPECIFIED' ) ;
#138 = SPHERICAL_SURFACE ( 'NONE', #222, 2.169000000000003148 ) ;
#139 = CARTESIAN_POINT ( 'NONE',  ( 0.0000000000000000000, 1.369109903573417966E-16, -0.3050000000000001599 ) ) ;
#140 = CARTESIAN_POINT ( 'NONE',  ( 0.0000000000000000000, 1.369109903573417966E-16, -0.3050000000000001599 ) ) ;
#141 = DIRECTION ( 'NONE',  ( 0.0000000000000000000, -3.061515884555943639E-16, 1.000000000000000000 ) ) ;
#142 = DIRECTION ( 'NONE',  ( 0.0000000000000000000, 1.000000000000000000, 3.199121209731312876E-16 ) ) ;
#143 = CIRCLE ( 'NONE', #292, 2.169000000000003148 ) ;
#144 = ORIENTED_EDGE ( 'NONE', *, *, #51, .F. ) ;
#145 = DIRECTION ( 'NONE',  ( 0.0000000000000000000, 1.000000000000000000, 3.122502256758252770E-16 ) ) ;
#146 = CC_DESIGN_PERSON_AND_ORGANIZATION_ASSIGNMENT ( #158, #29, ( #60 ) ) ;
#147 = CC_DESIGN_APPROVAL ( #185, ( #89 ) ) ;
#148 = CARTESIAN_POINT ( 'NONE',  ( 0.0000000000000000000, 1.307879585882303639E-16, -0.2850000000000016409 ) ) ;
#149 = ORIENTED_EDGE ( 'NONE', *, *, #297, .F. ) ;
#150 = CARTESIAN_POINT ( 'NONE',  ( 0.0000000000000000000, 8.201434450633462426E-17, -0.1256880254061801261 ) ) ;
#151 = CARTESIAN_POINT ( 'NONE',  ( 1.535557032699323694E-16, -1.253877472074755639, -0.09415472850776102076 ) ) ;
#152 = LOCAL_TIME ( 7, 11, 22.00000000000000000, #217 ) ;
#153 = CIRCLE ( 'NONE', #126, 1.253877472074755195 ) ;
#154 = DIRECTION ( 'NONE',  ( 0.0000000000000000000, 0.0000000000000000000, 1.000000000000000000 ) ) ;
#155 = EDGE_LOOP ( 'NONE', ( #282, #159, #250, #92 ) ) ;
#156 = CC_DESIGN_PERSON_AND_ORGANIZATION_ASSIGNMENT ( #174, #262, ( #261 ) ) ;
#157 = AXIS2_PLACEMENT_3D ( 'NONE', #195, #141, #13 ) ;
#158 = PERSON_AND_ORGANIZATION ( #182, #244 ) ;
#159 = ORIENTED_EDGE ( 'NONE', *, *, #84, .T. ) ;
#160 = ORIENTED_EDGE ( 'NONE', *, *, #19, .F. ) ;
#161 = ADVANCED_FACE ( 'NONE', ( #9 ), #180, .T. ) ;
#162 = MECHANICAL_CONTEXT ( 'NONE', #236, 'mechanical' ) ;
#163 = ORIENTED_EDGE ( 'NONE', *, *, #67, .T. ) ;
#164 = DIRECTION ( 'NONE',  ( 0.0000000000000000000, -3.061515884555943639E-16, 1.000000000000000000 ) ) ;
#165 = CARTESIAN_POINT ( 'NONE',  ( 0.0000000000000000000, 0.0000000000000000000, 0.0000000000000000000 ) ) ;
#166 = CARTESIAN_POINT ( 'NONE',  ( 0.0000000000000000000, 1.307879585882303639E-16, -0.2850000000000016409 ) ) ;
#167 = FACE_OUTER_BOUND ( 'NONE', #209, .T. ) ;
#168 = ORIENTED_EDGE ( 'NONE', *, *, #51, .T. ) ;
#169 = CARTESIAN_POINT ( 'NONE',  ( 0.0000000000000000000, 8.201434450633462426E-17, -0.1256880254061801261 ) ) ;
#170 = DIRECTION ( 'NONE',  ( 0.0000000000000000000, -3.061515884555934764E-16, 1.000000000000000000 ) ) ;
#171 = ORIENTED_EDGE ( 'NONE', *, *, #232, .T. ) ;
#172 = CC_DESIGN_PERSON_AND_ORGANIZATION_ASSIGNMENT ( #40, #4, ( #89 ) ) ;
#173 = CC_DESIGN_PERSON_AND_ORGANIZATION_ASSIGNMENT ( #233, #184, ( #196 ) ) ;
#174 = PERSON_AND_ORGANIZATION ( #182, #244 ) ;
#175 = ORIENTED_EDGE ( 'NONE', *, *, #243, .F. ) ;
#176 = AXIS2_PLACEMENT_3D ( 'NONE', #150, #38, #272 ) ;
#177 = AXIS2_PLACEMENT_3D ( 'NONE', #224, #190, #54 ) ;
#178 = CC_DESIGN_DATE_AND_TIME_ASSIGNMENT ( #8, #118, ( #60 ) ) ;
#179 = AXIS2_PLACEMENT_3D ( 'NONE', #17, #293, #11 ) ;
#180 = CONICAL_SURFACE ( 'NONE', #39, 1.269999999999998908, 0.4726354569634615976 ) ;
#181 = ADVANCED_FACE ( 'NONE', ( #167 ), #26, .T. ) ;
#182 = PERSON ( 'UNSPECIFIED', 'UNSPECIFIED', 'UNSPECIFIED', ('UNSPECIFIED'), ('UNSPECIFIED'), ('UNSPECIFIED') ) ;
#183 = APPROVAL_DATE_TIME ( #225, #185 ) ;
#184 = PERSON_AND_ORGANIZATION_ROLE ( 'creator' ) ;
#185 = APPROVAL ( #210, 'UNSPECIFIED' ) ;
#186 = DIRECTION ( 'NONE',  ( 0.0000000000000000000, -1.000000000000000000, -3.122502256758252770E-16 ) ) ;
#187 = LOCAL_TIME ( 7, 11, 22.00000000000000000, #220 ) ;
#188 = EDGE_CURVE ( 'NONE', #246, #199, #143, .T. ) ;
#189 = EDGE_CURVE ( 'NONE', #82, #116, #251, .T. ) ;
#190 = DIRECTION ( 'NONE',  ( -0.0000000000000000000, 3.061515884555942652E-16, -1.000000000000000000 ) ) ;
#191 = DIRECTION ( 'NONE',  ( 0.0000000000000000000, 1.000000000000000000, 3.026378325005130740E-16 ) ) ;
#192 = LOCAL_TIME ( 7, 11, 22.00000000000000000, #298 ) ;
#193 = FACE_OUTER_BOUND ( 'NONE', #63, .T. ) ;
#194 = EDGE_LOOP ( 'NONE', ( #301, #221 ) ) ;
#195 = CARTESIAN_POINT ( 'NONE',  ( 0.0000000000000000000, 1.369109903573417966E-16, -0.3050000000000001599 ) ) ;
#196 = PRODUCT_DEFINITION_FORMATION_WITH_SPECIFIED_SOURCE ( 'ANY', '', #261, .NOT_KNOWN. ) ;
#197 = APPROVAL ( #136, 'UNSPECIFIED' ) ;
#198 = AXIS2_PLACEMENT_3D ( 'NONE', #139, #286, #186 ) ;
#199 = VERTEX_POINT ( 'NONE', #151 ) ;
#200 = DIRECTION ( 'NONE',  ( -1.224646799147353207E-16, 1.000000000000000000, 0.0000000000000000000 ) ) ;
#201 = DIRECTION ( 'NONE',  ( 0.0000000000000000000, -3.061515884555943639E-16, 1.000000000000000000 ) ) ;
#202 = CALENDAR_DATE ( 2019, 16, 7 ) ;
#203 = EDGE_LOOP ( 'NONE', ( #300, #109, #168 ) ) ;
#204 = VECTOR ( 'NONE', #124, 100.0000000000000142 ) ;
#205 = AXIS2_PLACEMENT_3D ( 'NONE', #148, #201, #104 ) ;
#206 = LOCAL_TIME ( 7, 11, 22.00000000000000000, #257 ) ;
#207 = CONICAL_SURFACE ( 'NONE', #198, 1.250000000000000000, 0.7853981633974613796 ) ;
#208 = LINE ( 'NONE', #31, #47 ) ;
#209 = EDGE_LOOP ( 'NONE', ( #64, #103, #171 ) ) ;
#210 = APPROVAL_STATUS ( 'not_yet_approved' ) ;
#211 = CC_DESIGN_APPROVAL ( #197, ( #196 ) ) ;
#212 = CARTESIAN_POINT ( 'NONE',  ( 1.555301434917137101E-16, -1.269999999999998908, -0.1256880254061801816 ) ) ;
#213 = DIRECTION ( 'NONE',  ( -0.0000000000000000000, 3.061515884555942652E-16, -1.000000000000000000 ) ) ;
#214 = DIRECTION ( 'NONE',  ( 0.0000000000000000000, 0.0000000000000000000, 1.000000000000000000 ) ) ;
#215 = CARTESIAN_POINT ( 'NONE',  ( 0.0000000000000000000, -3.260653016444682185E-16, -0.09415472850776047953 ) ) ;
#216 = CARTESIAN_POINT ( 'NONE',  ( 0.0000000000000000000, 2.157756395435016991E-16, -1.863999999999998991 ) ) ;
#217 = COORDINATED_UNIVERSAL_TIME_OFFSET ( 5, 0, .BEHIND. ) ;
#218 = ORIENTED_EDGE ( 'NONE', *, *, #287, .T. ) ;
#219 = DIRECTION ( 'NONE',  ( -0.0000000000000000000, 3.061515884555934764E-16, -1.000000000000000000 ) ) ;
#220 = COORDINATED_UNIVERSAL_TIME_OFFSET ( 5, 0, .BEHIND. ) ;
#221 = ORIENTED_EDGE ( 'NONE', *, *, #45, .T. ) ;
#222 = AXIS2_PLACEMENT_3D ( 'NONE', #216, #117, #77 ) ;
#223 = AXIS2_PLACEMENT_3D ( 'NONE', #140, #105, #75 ) ;
#224 = CARTESIAN_POINT ( 'NONE',  ( 0.0000000000000000000, 1.369109903573417473E-16, -0.3049999999999999933 ) ) ;
#225 = DATE_AND_TIME ( #99, #206 ) ;
#226 = APPROVAL_PERSON_ORGANIZATION ( #127, #197, #260 ) ;
#227 = FACE_OUTER_BOUND ( 'NONE', #42, .T. ) ;
#228 = CARTESIAN_POINT ( 'NONE',  ( 0.0000000000000000000, 1.369109903573417719E-16, -0.3050000000000001599 ) ) ;
#229 = ORIENTED_EDGE ( 'NONE', *, *, #45, .F. ) ;
#230 = DIRECTION ( 'NONE',  ( -0.0000000000000000000, 3.061515884555934764E-16, -1.000000000000000000 ) ) ;
#231 = EDGE_LOOP ( 'NONE', ( #144, #57, #259, #33 ) ) ;
#232 = EDGE_CURVE ( 'NONE', #23, #199, #255, .T. ) ;
#233 = PERSON_AND_ORGANIZATION ( #182, #244 ) ;
#234 = CYLINDRICAL_SURFACE ( 'NONE', #274, 1.269999999999998908 ) ;
#235 = ORIENTED_EDGE ( 'NONE', *, *, #24, .F. ) ;
#236 = APPLICATION_CONTEXT ( 'configuration controlled 3d designs of mechanical parts and assemblies' ) ;
#237 = DIRECTION ( 'NONE',  ( 1.000000000000000000, 0.0000000000000000000, 0.0000000000000000000 ) ) ;
#238 = AXIS2_PLACEMENT_3D ( 'NONE', #95, #265, #142 ) ;
#239 = DIRECTION ( 'NONE',  ( 0.0000000000000000000, 1.000000000000000000, 3.073328992872298832E-16 ) ) ;
#240 = CC_DESIGN_SECURITY_CLASSIFICATION ( #89, ( #196 ) ) ;
#241 = DIRECTION ( 'NONE',  ( 5.575013504818466592E-17, -0.4552343997224346794, -0.8903716310110934007 ) ) ;
#242 =( LENGTH_UNIT ( ) NAMED_UNIT ( * ) SI_UNIT ( .CENTI., .METRE. ) );
#243 = EDGE_CURVE ( 'NONE', #15, #114, #277, .T. ) ;
#244 = ORGANIZATION ( 'UNSPECIFIED', 'UNSPECIFIED', '' ) ;
#245 = LINE ( 'NONE', #76, #266 ) ;
#246 = VERTEX_POINT ( 'NONE', #74 ) ;
#247 = DIRECTION ( 'NONE',  ( 0.0000000000000000000, 1.000000000000000000, 3.026378325005130740E-16 ) ) ;
#248 = DIRECTION ( 'NONE',  ( -1.000000000000000000, 0.0000000000000000000, 0.0000000000000000000 ) ) ;
#249 = PRODUCT_DEFINITION_SHAPE ( 'NONE', 'NONE',  #60 ) ;
#250 = ORIENTED_EDGE ( 'NONE', *, *, #24, .T. ) ;
#251 = CIRCLE ( 'NONE', #176, 1.269999999999998908 ) ;
#252 = CARTESIAN_POINT ( 'NONE',  ( 0.0000000000000000000, 2.157756395435016991E-16, -1.863999999999998991 ) ) ;
#253 = ORIENTED_EDGE ( 'NONE', *, *, #84, .F. ) ;
#254 = DESIGN_CONTEXT ( 'detailed design', #3, 'design' ) ;
#255 = CIRCLE ( 'NONE', #283, 1.253877472074755195 ) ;
#256 = AXIS2_PLACEMENT_3D ( 'NONE', #228, #268, #145 ) ;
#257 = COORDINATED_UNIVERSAL_TIME_OFFSET ( 5, 0, .BEHIND. ) ;
#258 = ADVANCED_FACE ( 'NONE', ( #41 ), #56, .T. ) ;
#259 = ORIENTED_EDGE ( 'NONE', *, *, #6, .F. ) ;
#260 = APPROVAL_ROLE ( '' ) ;
#261 = PRODUCT ( '20132-E0W', '20132-E0W', '', ( #162 ) ) ;
#262 = PERSON_AND_ORGANIZATION_ROLE ( 'design_owner' ) ;
#263 = DIRECTION ( 'NONE',  ( 8.659560562355046257E-17, 0.7071067811865564545, 0.7071067811865385799 ) ) ;
#264 = DIRECTION ( 'NONE',  ( 0.0000000000000000000, 1.000000000000000000, 3.073328992872298832E-16 ) ) ;
#265 = DIRECTION ( 'NONE',  ( 1.000000000000000000, 0.0000000000000000000, -0.0000000000000000000 ) ) ;
#266 = VECTOR ( 'NONE', #10, 100.0000000000000000 ) ;
#267 = ORIENTED_EDGE ( 'NONE', *, *, #297, .T. ) ;
#268 = DIRECTION ( 'NONE',  ( -0.0000000000000000000, 3.061515884555942652E-16, -1.000000000000000000 ) ) ;
#269 = CARTESIAN_POINT ( 'NONE',  ( 0.0000000000000000000, -1.249999999999999778, -0.3050000000000005485 ) ) ;
#270 = ORIENTED_EDGE ( 'NONE', *, *, #62, .T. ) ;
#271 = AXIS2_PLACEMENT_3D ( 'NONE', #66, #230, #61 ) ;
#272 = DIRECTION ( 'NONE',  ( 0.0000000000000000000, -1.000000000000000000, -3.073328992872298832E-16 ) ) ;
#273 = LINE ( 'NONE', #269, #204 ) ;
#274 = AXIS2_PLACEMENT_3D ( 'NONE', #59, #78, #264 ) ;
#275 = ADVANCED_FACE ( 'NONE', ( #123 ), #207, .T. ) ;
#276 = VECTOR ( 'NONE', #263, 100.0000000000000000 ) ;
#277 = CIRCLE ( 'NONE', #44, 1.269999999999998908 ) ;
#278 = ORIENTED_EDGE ( 'NONE', *, *, #243, .T. ) ;
#279 = DATE_TIME_ROLE ( 'classification_date' ) ;
#280 = SECURITY_CLASSIFICATION_LEVEL ( 'unclassified' ) ;
#281 = APPROVAL_DATE_TIME ( #55, #137 ) ;
#282 = ORIENTED_EDGE ( 'NONE', *, *, #6, .T. ) ;
#283 = AXIS2_PLACEMENT_3D ( 'NONE', #215, #98, #247 ) ;
#284 = APPROVAL_STATUS ( 'not_yet_approved' ) ;
#285 = CARTESIAN_POINT ( 'NONE',  ( 0.0000000000000000000, 1.269999999999998908, -0.1256880254061797375 ) ) ;
#286 = DIRECTION ( 'NONE',  ( 0.0000000000000000000, -3.061515884555943639E-16, 1.000000000000000000 ) ) ;
#287 = EDGE_CURVE ( 'NONE', #23, #116, #245, .T. ) ;
#288 = DIRECTION ( 'NONE',  ( -0.0000000000000000000, 3.061515884555934764E-16, -1.000000000000000000 ) ) ;
#289 = SHAPE_DEFINITION_REPRESENTATION ( #249, #34 ) ;
#290 = CIRCLE ( 'NONE', #1, 2.169000000000003148 ) ;
#291 = VERTEX_POINT ( 'NONE', #52 ) ;
#292 = AXIS2_PLACEMENT_3D ( 'NONE', #20, #65, #200 ) ;
#293 = DIRECTION ( 'NONE',  ( -0.0000000000000000000, 3.061515884555942652E-16, -1.000000000000000000 ) ) ;
#294 = DIRECTION ( 'NONE',  ( 0.0000000000000000000, -1.000000000000000000, -3.073328992872298832E-16 ) ) ;
#295 = COORDINATED_UNIVERSAL_TIME_OFFSET ( 5, 0, .BEHIND. ) ;
#296 = CIRCLE ( 'NONE', #179, 1.250000000000000000 ) ;
#297 = EDGE_CURVE ( 'NONE', #108, #15, #46, .T. ) ;
#298 = COORDINATED_UNIVERSAL_TIME_OFFSET ( 5, 0, .BEHIND. ) ;
#299 = FACE_OUTER_BOUND ( 'NONE', #110, .T. ) ;
#300 = ORIENTED_EDGE ( 'NONE', *, *, #37, .F. ) ;
#301 = ORIENTED_EDGE ( 'NONE', *, *, #19, .T. ) ;
ENDSEC;
END-ISO-10303-21;
