ISO-10303-21;
HEADER;
FILE_DESCRIPTION (( 'STEP AP203' ),
    '1' );
FILE_NAME ('Web Model 83100.STEP',
    '2017-02-01T15:09:30',
    ( '' ),
    ( '' ),
    'SwSTEP 2.0',
    'SolidWorks 2016',
    '' );
FILE_SCHEMA (( 'CONFIG_CONTROL_DESIGN' ));
ENDSEC;

DATA;
#1 = ORIENTED_EDGE ( 'NONE', *, *, #164, .F. ) ;
#2 =( GEOMETRIC_REPRESENTATION_CONTEXT ( 3 ) GLOBAL_UNCERTAINTY_ASSIGNED_CONTEXT ( ( #52 ) ) GLOBAL_UNIT_ASSIGNED_CONTEXT ( ( #98, #43, #26 ) ) REPRESENTATION_CONTEXT ( 'NONE', 'WORKASPACE' ) );
#3 = PERSON ( 'UNSPECIFIED', 'UNSPECIFIED', 'UNSPECIFIED', ('UNSPECIFIED'), ('UNSPECIFIED'), ('UNSPECIFIED') ) ;
#4 = APPROVAL_DATE_TIME ( #107, #68 ) ;
#5 = LOCAL_TIME ( 10, 9, 30.00000000000000000, #51 ) ;
#6 = CARTESIAN_POINT ( 'NONE',  ( 0.0000000000000000000, 0.0000000000000000000, 0.2000000000000000100 ) ) ;
#7 = DIRECTION ( 'NONE',  ( 0.0000000000000000000, 0.0000000000000000000, 1.000000000000000000 ) ) ;
#8 = CARTESIAN_POINT ( 'NONE',  ( 0.0000000000000000000, 0.0000000000000000000, 0.2000000000000000100 ) ) ;
#9 = APPROVAL_PERSON_ORGANIZATION ( #75, #68, #18 ) ;
#10 = PERSON_AND_ORGANIZATION ( #3, #74 ) ;
#11 = APPROVAL_ROLE ( '' ) ;
#12 = ADVANCED_FACE ( 'NONE', ( #144 ), #130, .T. ) ;
#13 = ADVANCED_FACE ( 'NONE', ( #62 ), #25, .T. ) ;
#14 = DATE_AND_TIME ( #100, #156 ) ;
#15 = PRODUCT_RELATED_PRODUCT_CATEGORY ( 'detail', '', ( #103 ) ) ;
#16 = VERTEX_POINT ( 'NONE', #168 ) ;
#17 = CC_DESIGN_PERSON_AND_ORGANIZATION_ASSIGNMENT ( #116, #60, ( #103 ) ) ;
#18 = APPROVAL_ROLE ( '' ) ;
#19 = SECURITY_CLASSIFICATION_LEVEL ( 'unclassified' ) ;
#20 = LOCAL_TIME ( 10, 9, 30.00000000000000000, #101 ) ;
#21 = ADVANCED_BREP_SHAPE_REPRESENTATION ( 'Web Model 83100', ( #40, #90 ), #2 ) ;
#22 = VECTOR ( 'NONE', #159, 1000.000000000000000 ) ;
#23 = PRODUCT_DEFINITION ( 'UNKNOWN', '', #85, #93 ) ;
#24 = PERSON_AND_ORGANIZATION ( #3, #74 ) ;
#25 = PLANE ( 'NONE',  #123 ) ;
#26 =( NAMED_UNIT ( * ) SI_UNIT ( $, .STERADIAN. ) SOLID_ANGLE_UNIT ( ) );
#27 = EDGE_CURVE ( 'NONE', #95, #129, #105, .T. ) ;
#28 = DIRECTION ( 'NONE',  ( 0.0000000000000000000, 0.0000000000000000000, 1.000000000000000000 ) ) ;
#29 = CARTESIAN_POINT ( 'NONE',  ( 5.000000000000000000, 6.123233995736766300E-016, 0.0000000000000000000 ) ) ;
#30 = COORDINATED_UNIVERSAL_TIME_OFFSET ( 5, 0, .BEHIND. ) ;
#31 = MECHANICAL_CONTEXT ( 'NONE', #158, 'mechanical' ) ;
#32 = APPROVAL_ROLE ( '' ) ;
#33 = APPROVAL_STATUS ( 'not_yet_approved' ) ;
#34 = PERSON_AND_ORGANIZATION_ROLE ( 'creator' ) ;
#35 = CALENDAR_DATE ( 2017, 1, 2 ) ;
#36 = CC_DESIGN_DATE_AND_TIME_ASSIGNMENT ( #149, #104, ( #128 ) ) ;
#37 = PLANE ( 'NONE',  #143 ) ;
#38 = CC_DESIGN_APPROVAL ( #68, ( #23 ) ) ;
#39 = DIRECTION ( 'NONE',  ( 1.000000000000000000, 0.0000000000000000000, -0.0000000000000000000 ) ) ;
#40 = MANIFOLD_SOLID_BREP ( 'Extrude1', #53 ) ;
#41 = DIRECTION ( 'NONE',  ( -1.000000000000000000, 0.0000000000000000000, 0.0000000000000000000 ) ) ;
#42 = APPROVAL_PERSON_ORGANIZATION ( #72, #97, #32 ) ;
#43 =( NAMED_UNIT ( * ) PLANE_ANGLE_UNIT ( ) SI_UNIT ( $, .RADIAN. ) );
#44 = LINE ( 'NONE', #137, #77 ) ;
#45 = EDGE_LOOP ( 'NONE', ( #48, #109 ) ) ;
#46 = LOCAL_TIME ( 10, 9, 30.00000000000000000, #81 ) ;
#47 = VERTEX_POINT ( 'NONE', #29 ) ;
#48 = ORIENTED_EDGE ( 'NONE', *, *, #153, .F. ) ;
#49 = APPROVAL ( #61, 'UNSPECIFIED' ) ;
#50 = CC_DESIGN_PERSON_AND_ORGANIZATION_ASSIGNMENT ( #65, #58, ( #23 ) ) ;
#51 = COORDINATED_UNIVERSAL_TIME_OFFSET ( 5, 0, .BEHIND. ) ;
#52 = UNCERTAINTY_MEASURE_WITH_UNIT (LENGTH_MEASURE( 1.000000000000000100E-005 ), #98, 'distance_accuracy_value', 'NONE');
#53 = CLOSED_SHELL ( 'NONE', ( #172, #12, #13, #87 ) ) ;
#54 = CIRCLE ( 'NONE', #102, 5.000000000000000000 ) ;
#55 = DIRECTION ( 'NONE',  ( 1.000000000000000000, 0.0000000000000000000, 0.0000000000000000000 ) ) ;
#56 = DIRECTION ( 'NONE',  ( -0.0000000000000000000, -0.0000000000000000000, -1.000000000000000000 ) ) ;
#57 = DIRECTION ( 'NONE',  ( -1.000000000000000000, 0.0000000000000000000, 0.0000000000000000000 ) ) ;
#58 = PERSON_AND_ORGANIZATION_ROLE ( 'creator' ) ;
#59 = CIRCLE ( 'NONE', #134, 5.000000000000000000 ) ;
#60 = PERSON_AND_ORGANIZATION_ROLE ( 'design_owner' ) ;
#61 = APPROVAL_STATUS ( 'not_yet_approved' ) ;
#62 = FACE_OUTER_BOUND ( 'NONE', #121, .T. ) ;
#63 = AXIS2_PLACEMENT_3D ( 'NONE', #8, #117, #55 ) ;
#64 = EDGE_LOOP ( 'NONE', ( #167, #86, #92, #126 ) ) ;
#65 = PERSON_AND_ORGANIZATION ( #3, #74 ) ;
#66 = APPROVAL_PERSON_ORGANIZATION ( #108, #49, #11 ) ;
#67 = CC_DESIGN_SECURITY_CLASSIFICATION ( #128, ( #85 ) ) ;
#68 = APPROVAL ( #73, 'UNSPECIFIED' ) ;
#69 = CARTESIAN_POINT ( 'NONE',  ( 0.0000000000000000000, 0.0000000000000000000, 0.0000000000000000000 ) ) ;
#70 = DIRECTION ( 'NONE',  ( -0.0000000000000000000, -0.0000000000000000000, -1.000000000000000000 ) ) ;
#71 = COORDINATED_UNIVERSAL_TIME_OFFSET ( 5, 0, .BEHIND. ) ;
#72 = PERSON_AND_ORGANIZATION ( #3, #74 ) ;
#73 = APPROVAL_STATUS ( 'not_yet_approved' ) ;
#74 = ORGANIZATION ( 'UNSPECIFIED', 'UNSPECIFIED', '' ) ;
#75 = PERSON_AND_ORGANIZATION ( #3, #74 ) ;
#76 = APPROVAL_DATE_TIME ( #155, #97 ) ;
#77 = VECTOR ( 'NONE', #56, 1000.000000000000000 ) ;
#78 = DIRECTION ( 'NONE',  ( -0.0000000000000000000, -0.0000000000000000000, -1.000000000000000000 ) ) ;
#79 = CARTESIAN_POINT ( 'NONE',  ( 5.000000000000000000, 6.123233995736766300E-016, 0.2000000000000000100 ) ) ;
#80 = AXIS2_PLACEMENT_3D ( 'NONE', #69, #112, #96 ) ;
#81 = COORDINATED_UNIVERSAL_TIME_OFFSET ( 5, 0, .BEHIND. ) ;
#82 = DIRECTION ( 'NONE',  ( 0.0000000000000000000, 0.0000000000000000000, 1.000000000000000000 ) ) ;
#83 = ORIENTED_EDGE ( 'NONE', *, *, #171, .T. ) ;
#84 = APPLICATION_CONTEXT ( 'configuration controlled 3d designs of mechanical parts and assemblies' ) ;
#85 = PRODUCT_DEFINITION_FORMATION_WITH_SPECIFIED_SOURCE ( 'ANY', '', #103, .NOT_KNOWN. ) ;
#86 = ORIENTED_EDGE ( 'NONE', *, *, #27, .F. ) ;
#87 = ADVANCED_FACE ( 'NONE', ( #174 ), #37, .F. ) ;
#88 = APPROVAL_DATE_TIME ( #135, #49 ) ;
#89 = AXIS2_PLACEMENT_3D ( 'NONE', #142, #70, #57 ) ;
#90 = AXIS2_PLACEMENT_3D ( 'NONE', #119, #82, #124 ) ;
#91 = CC_DESIGN_PERSON_AND_ORGANIZATION_ASSIGNMENT ( #10, #151, ( #85 ) ) ;
#92 = ORIENTED_EDGE ( 'NONE', *, *, #150, .T. ) ;
#93 = DESIGN_CONTEXT ( 'detailed design', #84, 'design' ) ;
#94 = CARTESIAN_POINT ( 'NONE',  ( 0.0000000000000000000, 0.0000000000000000000, 0.2000000000000000100 ) ) ;
#95 = VERTEX_POINT ( 'NONE', #147 ) ;
#96 = DIRECTION ( 'NONE',  ( 1.000000000000000000, 0.0000000000000000000, 0.0000000000000000000 ) ) ;
#97 = APPROVAL ( #33, 'UNSPECIFIED' ) ;
#98 =( LENGTH_UNIT ( ) NAMED_UNIT ( * ) SI_UNIT ( .MILLI., .METRE. ) );
#99 = PERSON_AND_ORGANIZATION_ROLE ( 'classification_officer' ) ;
#100 = CALENDAR_DATE ( 2017, 1, 2 ) ;
#101 = COORDINATED_UNIVERSAL_TIME_OFFSET ( 5, 0, .BEHIND. ) ;
#102 = AXIS2_PLACEMENT_3D ( 'NONE', #133, #7, #160 ) ;
#103 = PRODUCT ( 'Web Model 83100', 'Web Model 83100', '', ( #31 ) ) ;
#104 = DATE_TIME_ROLE ( 'classification_date' ) ;
#105 = CIRCLE ( 'NONE', #63, 5.000000000000000000 ) ;
#106 = ORIENTED_EDGE ( 'NONE', *, *, #148, .T. ) ;
#107 = DATE_AND_TIME ( #35, #111 ) ;
#108 = PERSON_AND_ORGANIZATION ( #3, #74 ) ;
#109 = ORIENTED_EDGE ( 'NONE', *, *, #148, .F. ) ;
#110 = CC_DESIGN_APPROVAL ( #97, ( #85 ) ) ;
#111 = LOCAL_TIME ( 10, 9, 30.00000000000000000, #71 ) ;
#112 = DIRECTION ( 'NONE',  ( 0.0000000000000000000, 0.0000000000000000000, 1.000000000000000000 ) ) ;
#113 = AXIS2_PLACEMENT_3D ( 'NONE', #94, #78, #41 ) ;
#114 = DIRECTION ( 'NONE',  ( 0.0000000000000000000, 0.0000000000000000000, 1.000000000000000000 ) ) ;
#115 = ORIENTED_EDGE ( 'NONE', *, *, #27, .T. ) ;
#116 = PERSON_AND_ORGANIZATION ( #3, #74 ) ;
#117 = DIRECTION ( 'NONE',  ( 0.0000000000000000000, 0.0000000000000000000, 1.000000000000000000 ) ) ;
#118 = CALENDAR_DATE ( 2017, 1, 2 ) ;
#119 = CARTESIAN_POINT ( 'NONE',  ( 0.0000000000000000000, 0.0000000000000000000, 0.0000000000000000000 ) ) ;
#120 = APPLICATION_PROTOCOL_DEFINITION ( 'international standard', 'config_control_design', 1994, #158 ) ;
#121 = EDGE_LOOP ( 'NONE', ( #115, #127 ) ) ;
#122 = APPLICATION_PROTOCOL_DEFINITION ( 'international standard', 'config_control_design', 1994, #84 ) ;
#123 = AXIS2_PLACEMENT_3D ( 'NONE', #6, #28, #131 ) ;
#124 = DIRECTION ( 'NONE',  ( 1.000000000000000000, 0.0000000000000000000, 0.0000000000000000000 ) ) ;
#125 = CC_DESIGN_PERSON_AND_ORGANIZATION_ASSIGNMENT ( #175, #34, ( #85 ) ) ;
#126 = ORIENTED_EDGE ( 'NONE', *, *, #153, .T. ) ;
#127 = ORIENTED_EDGE ( 'NONE', *, *, #164, .T. ) ;
#128 = SECURITY_CLASSIFICATION ( '', '', #19 ) ;
#129 = VERTEX_POINT ( 'NONE', #79 ) ;
#130 = CYLINDRICAL_SURFACE ( 'NONE', #89, 5.000000000000000000 ) ;
#131 = DIRECTION ( 'NONE',  ( 1.000000000000000000, 0.0000000000000000000, -0.0000000000000000000 ) ) ;
#132 = CC_DESIGN_PERSON_AND_ORGANIZATION_ASSIGNMENT ( #24, #99, ( #128 ) ) ;
#133 = CARTESIAN_POINT ( 'NONE',  ( 0.0000000000000000000, 0.0000000000000000000, 0.2000000000000000100 ) ) ;
#134 = AXIS2_PLACEMENT_3D ( 'NONE', #145, #114, #136 ) ;
#135 = DATE_AND_TIME ( #166, #20 ) ;
#136 = DIRECTION ( 'NONE',  ( 1.000000000000000000, 0.0000000000000000000, 0.0000000000000000000 ) ) ;
#137 = CARTESIAN_POINT ( 'NONE',  ( -5.000000000000000000, 0.0000000000000000000, 0.2000000000000000100 ) ) ;
#138 = CIRCLE ( 'NONE', #80, 5.000000000000000000 ) ;
#139 = CYLINDRICAL_SURFACE ( 'NONE', #113, 5.000000000000000000 ) ;
#140 = EDGE_LOOP ( 'NONE', ( #1, #83, #106, #165 ) ) ;
#141 = CALENDAR_DATE ( 2017, 1, 2 ) ;
#142 = CARTESIAN_POINT ( 'NONE',  ( 0.0000000000000000000, 0.0000000000000000000, 0.2000000000000000100 ) ) ;
#143 = AXIS2_PLACEMENT_3D ( 'NONE', #146, #161, #39 ) ;
#144 = FACE_OUTER_BOUND ( 'NONE', #64, .T. ) ;
#145 = CARTESIAN_POINT ( 'NONE',  ( 0.0000000000000000000, 0.0000000000000000000, 0.0000000000000000000 ) ) ;
#146 = CARTESIAN_POINT ( 'NONE',  ( 0.0000000000000000000, 0.0000000000000000000, 0.0000000000000000000 ) ) ;
#147 = CARTESIAN_POINT ( 'NONE',  ( -5.000000000000000000, 0.0000000000000000000, 0.2000000000000000100 ) ) ;
#148 = EDGE_CURVE ( 'NONE', #47, #16, #59, .T. ) ;
#149 = DATE_AND_TIME ( #141, #5 ) ;
#150 = EDGE_CURVE ( 'NONE', #95, #16, #44, .T. ) ;
#151 = PERSON_AND_ORGANIZATION_ROLE ( 'design_supplier' ) ;
#152 = LINE ( 'NONE', #157, #22 ) ;
#153 = EDGE_CURVE ( 'NONE', #16, #47, #138, .T. ) ;
#154 = SHAPE_DEFINITION_REPRESENTATION ( #170, #21 ) ;
#155 = DATE_AND_TIME ( #118, #46 ) ;
#156 = LOCAL_TIME ( 10, 9, 30.00000000000000000, #30 ) ;
#157 = CARTESIAN_POINT ( 'NONE',  ( 5.000000000000000000, 6.123233995736766300E-016, 0.2000000000000000100 ) ) ;
#158 = APPLICATION_CONTEXT ( 'configuration controlled 3d designs of mechanical parts and assemblies' ) ;
#159 = DIRECTION ( 'NONE',  ( -0.0000000000000000000, -0.0000000000000000000, -1.000000000000000000 ) ) ;
#160 = DIRECTION ( 'NONE',  ( 1.000000000000000000, 0.0000000000000000000, 0.0000000000000000000 ) ) ;
#161 = DIRECTION ( 'NONE',  ( 0.0000000000000000000, 0.0000000000000000000, 1.000000000000000000 ) ) ;
#162 = DATE_TIME_ROLE ( 'creation_date' ) ;
#163 = CC_DESIGN_DATE_AND_TIME_ASSIGNMENT ( #14, #162, ( #23 ) ) ;
#164 = EDGE_CURVE ( 'NONE', #129, #95, #54, .T. ) ;
#165 = ORIENTED_EDGE ( 'NONE', *, *, #150, .F. ) ;
#166 = CALENDAR_DATE ( 2017, 1, 2 ) ;
#167 = ORIENTED_EDGE ( 'NONE', *, *, #171, .F. ) ;
#168 = CARTESIAN_POINT ( 'NONE',  ( -5.000000000000000000, 0.0000000000000000000, 0.0000000000000000000 ) ) ;
#169 = FACE_OUTER_BOUND ( 'NONE', #140, .T. ) ;
#170 = PRODUCT_DEFINITION_SHAPE ( 'NONE', 'NONE',  #23 ) ;
#171 = EDGE_CURVE ( 'NONE', #129, #47, #152, .T. ) ;
#172 = ADVANCED_FACE ( 'NONE', ( #169 ), #139, .T. ) ;
#173 = CC_DESIGN_APPROVAL ( #49, ( #128 ) ) ;
#174 = FACE_OUTER_BOUND ( 'NONE', #45, .T. ) ;
#175 = PERSON_AND_ORGANIZATION ( #3, #74 ) ;
ENDSEC;
END-ISO-10303-21;
