ISO-10303-21;
HEADER;
FILE_DESCRIPTION (( 'STEP AP203' ),
    '1' );
FILE_NAME ('Web Model 15402_15784.step',
    '2020-11-04T13:36:58',
    ( '' ),
    ( '' ),
    'SwSTEP 2.0',
    'SolidWorks 2018',
    '' );
FILE_SCHEMA (( 'CONFIG_CONTROL_DESIGN' ));
ENDSEC;

DATA;
#1 = PLANE ( 'NONE',  #52 ) ;
#2 = CARTESIAN_POINT ( 'NONE',  ( 0.7500000000000000000, 0.0000000000000000000, 0.0000000000000000000 ) ) ;
#3 = EDGE_CURVE ( 'NONE', #25, #35, #80, .T. ) ;
#4 = DIRECTION ( 'NONE',  ( 1.000000000000000000, 0.0000000000000000000, 0.0000000000000000000 ) ) ;
#5 = PERSON_AND_ORGANIZATION ( #30, #122 ) ;
#6 = ORIENTED_EDGE ( 'NONE', *, *, #118, .F. ) ;
#7 = PERSON_AND_ORGANIZATION ( #30, #122 ) ;
#8 = PERSON_AND_ORGANIZATION ( #30, #122 ) ;
#9 = EDGE_LOOP ( 'NONE', ( #160, #46, #49, #62 ) ) ;
#10 = AXIS2_PLACEMENT_3D ( 'NONE', #39, #85, #148 ) ;
#11 = EDGE_LOOP ( 'NONE', ( #155, #135 ) ) ;
#12 = PERSON_AND_ORGANIZATION ( #30, #122 ) ;
#13 = PRODUCT ( 'Web Model 15402_15784', 'Web Model 15402_15784', '', ( #128 ) ) ;
#14 = DIRECTION ( 'NONE',  ( 0.0000000000000000000, 0.0000000000000000000, -1.000000000000000000 ) ) ;
#15 = CC_DESIGN_APPROVAL ( #138, ( #42 ) ) ;
#16 = VERTEX_POINT ( 'NONE', #28 ) ;
#17 = DATE_AND_TIME ( #84, #78 ) ;
#18 = DIRECTION ( 'NONE',  ( 1.000000000000000000, 0.0000000000000000000, 0.0000000000000000000 ) ) ;
#19 = APPROVAL_STATUS ( 'not_yet_approved' ) ;
#20 = DATE_AND_TIME ( #53, #99 ) ;
#21 = DIRECTION ( 'NONE',  ( -1.000000000000000000, -0.0000000000000000000, -0.0000000000000000000 ) ) ;
#22 = FACE_OUTER_BOUND ( 'NONE', #81, .T. ) ;
#23 = FACE_OUTER_BOUND ( 'NONE', #11, .T. ) ;
#24 = AXIS2_PLACEMENT_3D ( 'NONE', #123, #56, #29 ) ;
#25 = VERTEX_POINT ( 'NONE', #112 ) ;
#26 = LINE ( 'NONE', #139, #158 ) ;
#27 = CARTESIAN_POINT ( 'NONE',  ( 0.7500000000000000000, 0.0000000000000000000, 0.0000000000000000000 ) ) ;
#28 = CARTESIAN_POINT ( 'NONE',  ( 0.7500000000000000000, 7.776507174585692163E-16, -6.349999999999999645 ) ) ;
#29 = DIRECTION ( 'NONE',  ( 0.0000000000000000000, 0.0000000000000000000, -1.000000000000000000 ) ) ;
#30 = PERSON ( 'UNSPECIFIED', 'UNSPECIFIED', 'UNSPECIFIED', ('UNSPECIFIED'), ('UNSPECIFIED'), ('UNSPECIFIED') ) ;
#31 = APPROVAL_ROLE ( '' ) ;
#32 = CC_DESIGN_DATE_AND_TIME_ASSIGNMENT ( #20, #172, ( #97 ) ) ;
#33 = LOCAL_TIME ( 8, 36, 58.00000000000000000, #117 ) ;
#34 = APPROVAL_ROLE ( '' ) ;
#35 = VERTEX_POINT ( 'NONE', #162 ) ;
#36 = CC_DESIGN_PERSON_AND_ORGANIZATION_ASSIGNMENT ( #144, #95, ( #101 ) ) ;
#37 = CLOSED_SHELL ( 'NONE', ( #115, #163, #127, #87 ) ) ;
#38 = SHAPE_DEFINITION_REPRESENTATION ( #40, #159 ) ;
#39 = CARTESIAN_POINT ( 'NONE',  ( 0.7500000000000000000, 0.0000000000000000000, 0.0000000000000000000 ) ) ;
#40 = PRODUCT_DEFINITION_SHAPE ( 'NONE', 'NONE',  #101 ) ;
#41 = CARTESIAN_POINT ( 'NONE',  ( 0.7500000000000000000, 7.776507174585692163E-16, -6.349999999999999645 ) ) ;
#42 = PRODUCT_DEFINITION_FORMATION_WITH_SPECIFIED_SOURCE ( 'ANY', '', #13, .NOT_KNOWN. ) ;
#43 = PERSON_AND_ORGANIZATION_ROLE ( 'design_supplier' ) ;
#44 = DATE_AND_TIME ( #114, #33 ) ;
#45 = APPROVAL_STATUS ( 'not_yet_approved' ) ;
#46 = ORIENTED_EDGE ( 'NONE', *, *, #98, .F. ) ;
#47 = APPLICATION_PROTOCOL_DEFINITION ( 'international standard', 'config_control_design', 1994, #74 ) ;
#48 = PERSON_AND_ORGANIZATION ( #30, #122 ) ;
#49 = ORIENTED_EDGE ( 'NONE', *, *, #173, .T. ) ;
#50 = APPROVAL_DATE_TIME ( #17, #142 ) ;
#51 = APPROVAL_PERSON_ORGANIZATION ( #168, #154, #31 ) ;
#52 = AXIS2_PLACEMENT_3D ( 'NONE', #126, #125, #86 ) ;
#53 = CALENDAR_DATE ( 2020, 4, 11 ) ;
#54 = DIRECTION ( 'NONE',  ( 1.000000000000000000, 0.0000000000000000000, 0.0000000000000000000 ) ) ;
#55 = LOCAL_TIME ( 8, 36, 58.00000000000000000, #65 ) ;
#56 = DIRECTION ( 'NONE',  ( 1.000000000000000000, 0.0000000000000000000, 0.0000000000000000000 ) ) ;
#57 = PERSON_AND_ORGANIZATION_ROLE ( 'classification_officer' ) ;
#58 =( NAMED_UNIT ( * ) SI_UNIT ( $, .STERADIAN. ) SOLID_ANGLE_UNIT ( ) );
#59 = APPLICATION_CONTEXT ( 'configuration controlled 3d designs of mechanical parts and assemblies' ) ;
#60 = DATE_AND_TIME ( #134, #82 ) ;
#61 = AXIS2_PLACEMENT_3D ( 'NONE', #96, #141, #151 ) ;
#62 = ORIENTED_EDGE ( 'NONE', *, *, #3, .T. ) ;
#63 = CC_DESIGN_PERSON_AND_ORGANIZATION_ASSIGNMENT ( #48, #140, ( #42 ) ) ;
#64 = VECTOR ( 'NONE', #68, 1000.000000000000000 ) ;
#65 = COORDINATED_UNIVERSAL_TIME_OFFSET ( 5, 0, .BEHIND. ) ;
#66 = AXIS2_PLACEMENT_3D ( 'NONE', #129, #166, #91 ) ;
#67 = PRODUCT_RELATED_PRODUCT_CATEGORY ( 'detail', '', ( #13 ) ) ;
#68 = DIRECTION ( 'NONE',  ( -1.000000000000000000, -0.0000000000000000000, -0.0000000000000000000 ) ) ;
#69 = PERSON_AND_ORGANIZATION_ROLE ( 'design_owner' ) ;
#70 = CIRCLE ( 'NONE', #152, 6.349999999999999645 ) ;
#71 = CARTESIAN_POINT ( 'NONE',  ( -0.7500000000000000000, 0.0000000000000000000, 0.0000000000000000000 ) ) ;
#72 = AXIS2_PLACEMENT_3D ( 'NONE', #71, #116, #153 ) ;
#73 = UNCERTAINTY_MEASURE_WITH_UNIT (LENGTH_MEASURE( 1.000000000000000082E-05 ), #107, 'distance_accuracy_value', 'NONE');
#74 = APPLICATION_CONTEXT ( 'configuration controlled 3d designs of mechanical parts and assemblies' ) ;
#75 = CARTESIAN_POINT ( 'NONE',  ( 0.7500000000000000000, 0.0000000000000000000, 6.349999999999999645 ) ) ;
#76 = CC_DESIGN_PERSON_AND_ORGANIZATION_ASSIGNMENT ( #5, #69, ( #13 ) ) ;
#77 = APPROVAL_DATE_TIME ( #60, #138 ) ;
#78 = LOCAL_TIME ( 8, 36, 58.00000000000000000, #121 ) ;
#79 = AXIS2_PLACEMENT_3D ( 'NONE', #2, #54, #161 ) ;
#80 = CIRCLE ( 'NONE', #24, 6.349999999999999645 ) ;
#81 = EDGE_LOOP ( 'NONE', ( #150, #149 ) ) ;
#82 = LOCAL_TIME ( 8, 36, 58.00000000000000000, #157 ) ;
#83 = ORIENTED_EDGE ( 'NONE', *, *, #120, .T. ) ;
#84 = CALENDAR_DATE ( 2020, 4, 11 ) ;
#85 = DIRECTION ( 'NONE',  ( -1.000000000000000000, -0.0000000000000000000, -0.0000000000000000000 ) ) ;
#86 = DIRECTION ( 'NONE',  ( 0.0000000000000000000, 0.0000000000000000000, -1.000000000000000000 ) ) ;
#87 = ADVANCED_FACE ( 'NONE', ( #22 ), #1, .F. ) ;
#88 = ORIENTED_EDGE ( 'NONE', *, *, #173, .F. ) ;
#89 = CARTESIAN_POINT ( 'NONE',  ( 0.7500000000000000000, 0.0000000000000000000, 0.0000000000000000000 ) ) ;
#90 = APPROVAL_PERSON_ORGANIZATION ( #12, #142, #137 ) ;
#91 = DIRECTION ( 'NONE',  ( 1.000000000000000000, 0.0000000000000000000, 0.0000000000000000000 ) ) ;
#92 = APPLICATION_PROTOCOL_DEFINITION ( 'international standard', 'config_control_design', 1994, #59 ) ;
#93 = APPROVAL_STATUS ( 'not_yet_approved' ) ;
#94 = CYLINDRICAL_SURFACE ( 'NONE', #61, 6.349999999999999645 ) ;
#95 = PERSON_AND_ORGANIZATION_ROLE ( 'creator' ) ;
#96 = CARTESIAN_POINT ( 'NONE',  ( 0.7500000000000000000, 0.0000000000000000000, 0.0000000000000000000 ) ) ;
#97 = SECURITY_CLASSIFICATION ( '', '', #109 ) ;
#98 = EDGE_CURVE ( 'NONE', #165, #16, #70, .T. ) ;
#99 = LOCAL_TIME ( 8, 36, 58.00000000000000000, #124 ) ;
#100 = MANIFOLD_SOLID_BREP ( 'Boss-Extrude1', #37 ) ;
#101 = PRODUCT_DEFINITION ( 'UNKNOWN', '', #42, #146 ) ;
#102 = APPROVAL_DATE_TIME ( #131, #154 ) ;
#103 = DIRECTION ( 'NONE',  ( 0.0000000000000000000, 0.0000000000000000000, -1.000000000000000000 ) ) ;
#104 = PLANE ( 'NONE',  #175 ) ;
#105 = FACE_OUTER_BOUND ( 'NONE', #113, .T. ) ;
#106 =( GEOMETRIC_REPRESENTATION_CONTEXT ( 3 ) GLOBAL_UNCERTAINTY_ASSIGNED_CONTEXT ( ( #73 ) ) GLOBAL_UNIT_ASSIGNED_CONTEXT ( ( #107, #171, #58 ) ) REPRESENTATION_CONTEXT ( 'NONE', 'WORKASPACE' ) );
#107 =( LENGTH_UNIT ( ) NAMED_UNIT ( * ) SI_UNIT ( .MILLI., .METRE. ) );
#108 = CC_DESIGN_DATE_AND_TIME_ASSIGNMENT ( #44, #170, ( #101 ) ) ;
#109 = SECURITY_CLASSIFICATION_LEVEL ( 'unclassified' ) ;
#110 = CIRCLE ( 'NONE', #72, 6.349999999999999645 ) ;
#111 = PERSON_AND_ORGANIZATION ( #30, #122 ) ;
#112 = CARTESIAN_POINT ( 'NONE',  ( -0.7500000000000000000, 0.0000000000000000000, 6.349999999999999645 ) ) ;
#113 = EDGE_LOOP ( 'NONE', ( #6, #83, #167, #88 ) ) ;
#114 = CALENDAR_DATE ( 2020, 4, 11 ) ;
#115 = ADVANCED_FACE ( 'NONE', ( #105 ), #143, .T. ) ;
#116 = DIRECTION ( 'NONE',  ( 1.000000000000000000, 0.0000000000000000000, 0.0000000000000000000 ) ) ;
#117 = COORDINATED_UNIVERSAL_TIME_OFFSET ( 5, 0, .BEHIND. ) ;
#118 = EDGE_CURVE ( 'NONE', #16, #165, #119, .T. ) ;
#119 = CIRCLE ( 'NONE', #79, 6.349999999999999645 ) ;
#120 = EDGE_CURVE ( 'NONE', #16, #35, #156, .T. ) ;
#121 = COORDINATED_UNIVERSAL_TIME_OFFSET ( 5, 0, .BEHIND. ) ;
#122 = ORGANIZATION ( 'UNSPECIFIED', 'UNSPECIFIED', '' ) ;
#123 = CARTESIAN_POINT ( 'NONE',  ( -0.7500000000000000000, 0.0000000000000000000, 0.0000000000000000000 ) ) ;
#124 = COORDINATED_UNIVERSAL_TIME_OFFSET ( 5, 0, .BEHIND. ) ;
#125 = DIRECTION ( 'NONE',  ( 1.000000000000000000, 0.0000000000000000000, 0.0000000000000000000 ) ) ;
#126 = CARTESIAN_POINT ( 'NONE',  ( -0.7500000000000000000, 0.0000000000000000000, 0.0000000000000000000 ) ) ;
#127 = ADVANCED_FACE ( 'NONE', ( #23 ), #104, .T. ) ;
#128 = MECHANICAL_CONTEXT ( 'NONE', #59, 'mechanical' ) ;
#129 = CARTESIAN_POINT ( 'NONE',  ( 0.0000000000000000000, 0.0000000000000000000, 0.0000000000000000000 ) ) ;
#130 = EDGE_CURVE ( 'NONE', #35, #25, #110, .T. ) ;
#131 = DATE_AND_TIME ( #132, #55 ) ;
#132 = CALENDAR_DATE ( 2020, 4, 11 ) ;
#133 = CC_DESIGN_APPROVAL ( #154, ( #101 ) ) ;
#134 = CALENDAR_DATE ( 2020, 4, 11 ) ;
#135 = ORIENTED_EDGE ( 'NONE', *, *, #118, .T. ) ;
#136 = CC_DESIGN_PERSON_AND_ORGANIZATION_ASSIGNMENT ( #8, #43, ( #42 ) ) ;
#137 = APPROVAL_ROLE ( '' ) ;
#138 = APPROVAL ( #93, 'UNSPECIFIED' ) ;
#139 = CARTESIAN_POINT ( 'NONE',  ( 0.7500000000000000000, 0.0000000000000000000, 6.349999999999999645 ) ) ;
#140 = PERSON_AND_ORGANIZATION_ROLE ( 'creator' ) ;
#141 = DIRECTION ( 'NONE',  ( -1.000000000000000000, -0.0000000000000000000, -0.0000000000000000000 ) ) ;
#142 = APPROVAL ( #19, 'UNSPECIFIED' ) ;
#143 = CYLINDRICAL_SURFACE ( 'NONE', #10, 6.349999999999999645 ) ;
#144 = PERSON_AND_ORGANIZATION ( #30, #122 ) ;
#145 = CC_DESIGN_PERSON_AND_ORGANIZATION_ASSIGNMENT ( #7, #57, ( #97 ) ) ;
#146 = DESIGN_CONTEXT ( 'detailed design', #74, 'design' ) ;
#147 = FACE_OUTER_BOUND ( 'NONE', #9, .T. ) ;
#148 = DIRECTION ( 'NONE',  ( 0.0000000000000000000, 0.0000000000000000000, 1.000000000000000000 ) ) ;
#149 = ORIENTED_EDGE ( 'NONE', *, *, #130, .F. ) ;
#150 = ORIENTED_EDGE ( 'NONE', *, *, #3, .F. ) ;
#151 = DIRECTION ( 'NONE',  ( 0.0000000000000000000, 0.0000000000000000000, 1.000000000000000000 ) ) ;
#152 = AXIS2_PLACEMENT_3D ( 'NONE', #27, #4, #14 ) ;
#153 = DIRECTION ( 'NONE',  ( 0.0000000000000000000, 0.0000000000000000000, -1.000000000000000000 ) ) ;
#154 = APPROVAL ( #45, 'UNSPECIFIED' ) ;
#155 = ORIENTED_EDGE ( 'NONE', *, *, #98, .T. ) ;
#156 = LINE ( 'NONE', #41, #64 ) ;
#157 = COORDINATED_UNIVERSAL_TIME_OFFSET ( 5, 0, .BEHIND. ) ;
#158 = VECTOR ( 'NONE', #21, 1000.000000000000000 ) ;
#159 = ADVANCED_BREP_SHAPE_REPRESENTATION ( 'Web Model 15402_15784', ( #100, #66 ), #106 ) ;
#160 = ORIENTED_EDGE ( 'NONE', *, *, #120, .F. ) ;
#161 = DIRECTION ( 'NONE',  ( 0.0000000000000000000, 0.0000000000000000000, -1.000000000000000000 ) ) ;
#162 = CARTESIAN_POINT ( 'NONE',  ( -0.7500000000000000000, 7.776507174585692163E-16, -6.349999999999999645 ) ) ;
#163 = ADVANCED_FACE ( 'NONE', ( #147 ), #94, .T. ) ;
#164 = CC_DESIGN_SECURITY_CLASSIFICATION ( #97, ( #42 ) ) ;
#165 = VERTEX_POINT ( 'NONE', #75 ) ;
#166 = DIRECTION ( 'NONE',  ( 0.0000000000000000000, 0.0000000000000000000, 1.000000000000000000 ) ) ;
#167 = ORIENTED_EDGE ( 'NONE', *, *, #130, .T. ) ;
#168 = PERSON_AND_ORGANIZATION ( #30, #122 ) ;
#169 = CC_DESIGN_APPROVAL ( #142, ( #97 ) ) ;
#170 = DATE_TIME_ROLE ( 'creation_date' ) ;
#171 =( NAMED_UNIT ( * ) PLANE_ANGLE_UNIT ( ) SI_UNIT ( $, .RADIAN. ) );
#172 = DATE_TIME_ROLE ( 'classification_date' ) ;
#173 = EDGE_CURVE ( 'NONE', #165, #25, #26, .T. ) ;
#174 = APPROVAL_PERSON_ORGANIZATION ( #111, #138, #34 ) ;
#175 = AXIS2_PLACEMENT_3D ( 'NONE', #89, #18, #103 ) ;
ENDSEC;
END-ISO-10303-21;
