ISO-10303-21;
HEADER;
FILE_DESCRIPTION (( 'STEP AP214' ),
    '1' );
FILE_NAME ('4562-E0W.STEP',
    '2009-12-21T17:10:25',
    ( ' ' ),
    ( ' ' ),
    'SwSTEP 2.0',
    'SolidWorks 2009',
    '' );
FILE_SCHEMA (( 'AUTOMOTIVE_DESIGN' ));
ENDSEC;

DATA;
#1 = SURFACE_SIDE_STYLE ('',( #2 ) ) ;
#2 = SURFACE_STYLE_FILL_AREA ( #18 ) ;
#3 = SURFACE_STYLE_USAGE ( .BOTH. , #1 ) ;
#4 = PRESENTATION_STYLE_ASSIGNMENT (( #3 ) ) ;
#5 = STYLED_ITEM ( 'NONE', ( #4 ), #125 ) ;
#6 = PRESENTATION_LAYER_ASSIGNMENT (  '', '', ( #5 ) ) ;
#7 = MECHANICAL_DESIGN_GEOMETRIC_PRESENTATION_REPRESENTATION (  '', ( #5 ), #10 ) ;
#8 =( LENGTH_UNIT ( ) NAMED_UNIT ( * ) SI_UNIT ( .MILLI., .METRE. ) );
#9 = UNCERTAINTY_MEASURE_WITH_UNIT (LENGTH_MEASURE( 1.000000000000000100E-005 ), #8, 'distance_accuracy_value', 'NONE');
#10 =( GEOMETRIC_REPRESENTATION_CONTEXT ( 3 ) GLOBAL_UNCERTAINTY_ASSIGNED_CONTEXT ( ( #9 ) ) GLOBAL_UNIT_ASSIGNED_CONTEXT ( ( #8, #12, #11 ) ) REPRESENTATION_CONTEXT ( 'NONE', 'WORKASPACE' ) );
#11 =( NAMED_UNIT ( * ) SI_UNIT ( $, .STERADIAN. ) SOLID_ANGLE_UNIT ( ) );
#12 =( NAMED_UNIT ( * ) PLANE_ANGLE_UNIT ( ) SI_UNIT ( $, .RADIAN. ) );
#13 = DIRECTION ( 'NONE',  ( 1.000000000000000000, 0.0000000000000000000, 0.0000000000000000000 ) ) ;
#14 = CYLINDRICAL_SURFACE ( 'NONE', #17, 2.999999999999999100 ) ;
#15 = CARTESIAN_POINT ( 'NONE',  ( 0.0000000000000000000, 0.0000000000000000000, 4.308132045400366600 ) ) ;
#16 = DIRECTION ( 'NONE',  ( -0.0000000000000000000, -0.0000000000000000000, 1.000000000000000000 ) ) ;
#17 = AXIS2_PLACEMENT_3D ( 'NONE', #15, #16, #13 ) ;
#18 = FILL_AREA_STYLE ('',( #19 ) ) ;
#19 = FILL_AREA_STYLE_COLOUR ( '', #20 ) ;
#20 = COLOUR_RGB ( '',0.9568627450980391500, 0.9490196078431372100, 0.9607843137254902200 ) ;
#21 = FACE_OUTER_BOUND ( 'NONE', #126, .T. ) ;
#22 = DIRECTION ( 'NONE',  ( 1.000000000000000000, 0.0000000000000000000, 0.0000000000000000000 ) ) ;
#23 = LINE ( 'NONE', #24, #27 ) ;
#24 = CARTESIAN_POINT ( 'NONE',  ( 2.999999999999999100, 0.0000000000000000000, 4.308132045400366600 ) ) ;
#25 =( NAMED_UNIT ( * ) PLANE_ANGLE_UNIT ( ) SI_UNIT ( $, .RADIAN. ) );
#26 =( NAMED_UNIT ( * ) SI_UNIT ( $, .STERADIAN. ) SOLID_ANGLE_UNIT ( ) );
#27 = VECTOR ( 'NONE', #28, 1000.000000000000000 ) ;
#28 = DIRECTION ( 'NONE',  ( -0.0000000000000000000, -0.0000000000000000000, 1.000000000000000000 ) ) ;
#29 = UNCERTAINTY_MEASURE_WITH_UNIT (LENGTH_MEASURE( 1.000000000000000100E-005 ), #40, 'distance_accuracy_value', 'NONE');
#30 = AXIS2_PLACEMENT_3D ( 'NONE', #33, #32, #22 ) ;
#31 = CIRCLE ( 'NONE', #30, 2.999999999999999100 ) ;
#32 = DIRECTION ( 'NONE',  ( -0.0000000000000000000, -0.0000000000000000000, 1.000000000000000000 ) ) ;
#33 = CARTESIAN_POINT ( 'NONE',  ( 0.0000000000000000000, 0.0000000000000000000, -1.230000000000000200 ) ) ;
#34 = CARTESIAN_POINT ( 'NONE',  ( 2.999999999999999100, 0.0000000000000000000, 0.2659885331902219800 ) ) ;
#35 = MECHANICAL_DESIGN_GEOMETRIC_PRESENTATION_REPRESENTATION (  '', ( #68 ), #56 ) ;
#36 =( LENGTH_UNIT ( ) NAMED_UNIT ( * ) SI_UNIT ( .MILLI., .METRE. ) );
#37 = FACE_OUTER_BOUND ( 'NONE', #133, .T. ) ;
#38 = UNCERTAINTY_MEASURE_WITH_UNIT (LENGTH_MEASURE( 1.000000000000000100E-005 ), #60, 'distance_accuracy_value', 'NONE');
#39 =( NAMED_UNIT ( * ) SI_UNIT ( $, .STERADIAN. ) SOLID_ANGLE_UNIT ( ) );
#40 =( LENGTH_UNIT ( ) NAMED_UNIT ( * ) SI_UNIT ( .MILLI., .METRE. ) );
#41 = MECHANICAL_DESIGN_GEOMETRIC_PRESENTATION_REPRESENTATION (  '', ( #43 ), #85 ) ;
#42 = PRESENTATION_LAYER_ASSIGNMENT (  '', '', ( #43 ) ) ;
#43 = STYLED_ITEM ( 'NONE', ( #44 ), #66 ) ;
#44 = PRESENTATION_STYLE_ASSIGNMENT (( #45 ) ) ;
#45 = SURFACE_STYLE_USAGE ( .BOTH. , #46 ) ;
#46 = SURFACE_SIDE_STYLE ('',( #47 ) ) ;
#47 = SURFACE_STYLE_FILL_AREA ( #48 ) ;
#48 = FILL_AREA_STYLE ('',( #49 ) ) ;
#49 = FILL_AREA_STYLE_COLOUR ( '', #65 ) ;
#50 = FILL_AREA_STYLE_COLOUR ( '', #53 ) ;
#51 = PRESENTATION_STYLE_ASSIGNMENT (( #57 ) ) ;
#52 = FILL_AREA_STYLE ('',( #50 ) ) ;
#53 = COLOUR_RGB ( '',0.9568627450980391500, 0.9490196078431372100, 0.9607843137254902200 ) ;
#54 = CARTESIAN_POINT ( 'NONE',  ( 0.0000000000000000000, 0.0000000000000000000, -3.919999999999996400 ) ) ;
#55 = SPHERICAL_SURFACE ( 'NONE', #72, 5.149999999999998600 ) ;
#56 =( GEOMETRIC_REPRESENTATION_CONTEXT ( 3 ) GLOBAL_UNCERTAINTY_ASSIGNED_CONTEXT ( ( #61 ) ) GLOBAL_UNIT_ASSIGNED_CONTEXT ( ( #36, #63, #62 ) ) REPRESENTATION_CONTEXT ( 'NONE', 'WORKASPACE' ) );
#57 = SURFACE_STYLE_USAGE ( .BOTH. , #58 ) ;
#58 = SURFACE_SIDE_STYLE ('',( #69 ) ) ;
#59 =( NAMED_UNIT ( * ) PLANE_ANGLE_UNIT ( ) SI_UNIT ( $, .RADIAN. ) );
#60 =( LENGTH_UNIT ( ) NAMED_UNIT ( * ) SI_UNIT ( .MILLI., .METRE. ) );
#61 = UNCERTAINTY_MEASURE_WITH_UNIT (LENGTH_MEASURE( 1.000000000000000100E-005 ), #36, 'distance_accuracy_value', 'NONE');
#62 =( NAMED_UNIT ( * ) SI_UNIT ( $, .STERADIAN. ) SOLID_ANGLE_UNIT ( ) );
#63 =( NAMED_UNIT ( * ) PLANE_ANGLE_UNIT ( ) SI_UNIT ( $, .RADIAN. ) );
#64 = PRESENTATION_LAYER_ASSIGNMENT (  '', '', ( #68 ) ) ;
#65 = COLOUR_RGB ( '',0.7960784313725489700, 0.8235294117647058400, 0.9372549019607843100 ) ;
#66 = ADVANCED_BREP_SHAPE_REPRESENTATION ( '4562-E0W', ( #113, #73 ), #67 ) ;
#67 =( GEOMETRIC_REPRESENTATION_CONTEXT ( 3 ) GLOBAL_UNCERTAINTY_ASSIGNED_CONTEXT ( ( #38 ) ) GLOBAL_UNIT_ASSIGNED_CONTEXT ( ( #60, #59, #39 ) ) REPRESENTATION_CONTEXT ( 'NONE', 'WORKASPACE' ) );
#68 = STYLED_ITEM ( 'NONE', ( #51 ), #135 ) ;
#69 = SURFACE_STYLE_FILL_AREA ( #52 ) ;
#70 = DIRECTION ( 'NONE',  ( 0.0000000000000000000, 1.000000000000000000, 0.0000000000000000000 ) ) ;
#71 = DIRECTION ( 'NONE',  ( -1.000000000000000000, 0.0000000000000000000, 0.0000000000000000000 ) ) ;
#72 = AXIS2_PLACEMENT_3D ( 'NONE', #54, #71, #70 ) ;
#73 = AXIS2_PLACEMENT_3D ( 'NONE', #84, #87, #80 ) ;
#74 = PRODUCT_RELATED_PRODUCT_CATEGORY ( 'part', '', ( #81 ) ) ;
#75 = PRODUCT_DEFINITION_FORMATION_WITH_SPECIFIED_SOURCE ( 'ANY', '', #81, .NOT_KNOWN. ) ;
#76 = PRODUCT_DEFINITION ( 'UNKNOWN', '', #75, #77 ) ;
#77 = PRODUCT_DEFINITION_CONTEXT ( 'detailed design', #79, 'design' ) ;
#78 = APPLICATION_PROTOCOL_DEFINITION ( 'draft international standard', 'automotive_design', 1998, #79 ) ;
#79 = APPLICATION_CONTEXT ( 'automotive_design' ) ;
#80 = DIRECTION ( 'NONE',  ( 1.000000000000000000, 0.0000000000000000000, 0.0000000000000000000 ) ) ;
#81 = PRODUCT ( '4562-E0W', '4562-E0W', '', ( #82 ) ) ;
#82 = PRODUCT_CONTEXT ( 'NONE', #86, 'mechanical' ) ;
#83 = APPLICATION_PROTOCOL_DEFINITION ( 'draft international standard', 'automotive_design', 1998, #86 ) ;
#84 = CARTESIAN_POINT ( 'NONE',  ( 0.0000000000000000000, 0.0000000000000000000, 0.0000000000000000000 ) ) ;
#85 =( GEOMETRIC_REPRESENTATION_CONTEXT ( 3 ) GLOBAL_UNCERTAINTY_ASSIGNED_CONTEXT ( ( #29 ) ) GLOBAL_UNIT_ASSIGNED_CONTEXT ( ( #40, #25, #26 ) ) REPRESENTATION_CONTEXT ( 'NONE', 'WORKASPACE' ) );
#86 = APPLICATION_CONTEXT ( 'automotive_design' ) ;
#87 = DIRECTION ( 'NONE',  ( 0.0000000000000000000, 0.0000000000000000000, 1.000000000000000000 ) ) ;
#88 = SHAPE_DEFINITION_REPRESENTATION ( #89, #66 ) ;
#89 = PRODUCT_DEFINITION_SHAPE ( 'NONE', 'NONE',  #76 ) ;
#90 = EDGE_LOOP ( 'NONE', ( #93, #91, #104, #105 ) ) ;
#91 = ORIENTED_EDGE ( 'NONE', *, *, #103, .T. ) ;
#92 = ADVANCED_FACE ( 'NONE', ( #162 ), #259, .T. ) ;
#93 = ORIENTED_EDGE ( 'NONE', *, *, #96, .F. ) ;
#94 = ORIENTED_EDGE ( 'NONE', *, *, #95, .F. ) ;
#95 = EDGE_CURVE ( 'NONE', #120, #97, #258, .T. ) ;
#96 = EDGE_CURVE ( 'NONE', #112, #97, #249, .T. ) ;
#97 = VERTEX_POINT ( 'NONE', #244 ) ;
#98 = ORIENTED_EDGE ( 'NONE', *, *, #96, .T. ) ;
#99 = ORIENTED_EDGE ( 'NONE', *, *, #119, .F. ) ;
#100 = EDGE_LOOP ( 'NONE', ( #99, #137, #127, #138, #130 ) ) ;
#101 = ORIENTED_EDGE ( 'NONE', *, *, #115, .F. ) ;
#102 = CLOSED_SHELL ( 'NONE', ( #125, #135, #92, #106, #121 ) ) ;
#103 = EDGE_CURVE ( 'NONE', #112, #131, #242, .T. ) ;
#104 = ORIENTED_EDGE ( 'NONE', *, *, #108, .T. ) ;
#105 = ORIENTED_EDGE ( 'NONE', *, *, #95, .T. ) ;
#106 = ADVANCED_FACE ( 'NONE', ( #243 ), #150, .T. ) ;
#107 = ORIENTED_EDGE ( 'NONE', *, *, #108, .F. ) ;
#108 = EDGE_CURVE ( 'NONE', #131, #120, #149, .T. ) ;
#109 = EDGE_LOOP ( 'NONE', ( #101, #129 ) ) ;
#110 = ORIENTED_EDGE ( 'NONE', *, *, #111, .T. ) ;
#111 = EDGE_CURVE ( 'NONE', #122, #112, #140, .T. ) ;
#112 = VERTEX_POINT ( 'NONE', #230 ) ;
#113 = MANIFOLD_SOLID_BREP ( 'NONE', #102 ) ;
#114 = ORIENTED_EDGE ( 'NONE', *, *, #115, .T. ) ;
#115 = EDGE_CURVE ( 'NONE', #116, #117, #214, .T. ) ;
#116 = VERTEX_POINT ( 'NONE', #209 ) ;
#117 = VERTEX_POINT ( 'NONE', #208 ) ;
#118 = ORIENTED_EDGE ( 'NONE', *, *, #119, .T. ) ;
#119 = EDGE_CURVE ( 'NONE', #117, #122, #207, .T. ) ;
#120 = VERTEX_POINT ( 'NONE', #191 ) ;
#121 = ADVANCED_FACE ( 'NONE', ( #190 ), #174, .F. ) ;
#122 = VERTEX_POINT ( 'NONE', #169 ) ;
#123 = ORIENTED_EDGE ( 'NONE', *, *, #124, .F. ) ;
#124 = EDGE_CURVE ( 'NONE', #120, #122, #168, .T. ) ;
#125 = ADVANCED_FACE ( 'NONE', ( #21 ), #14, .T. ) ;
#126 = EDGE_LOOP ( 'NONE', ( #114, #118, #123, #107, #132 ) ) ;
#127 = ORIENTED_EDGE ( 'NONE', *, *, #134, .T. ) ;
#128 = EDGE_CURVE ( 'NONE', #117, #116, #31, .T. ) ;
#129 = ORIENTED_EDGE ( 'NONE', *, *, #128, .F. ) ;
#130 = ORIENTED_EDGE ( 'NONE', *, *, #111, .F. ) ;
#131 = VERTEX_POINT ( 'NONE', #34 ) ;
#132 = ORIENTED_EDGE ( 'NONE', *, *, #134, .F. ) ;
#133 = EDGE_LOOP ( 'NONE', ( #136, #110, #98, #94 ) ) ;
#134 = EDGE_CURVE ( 'NONE', #116, #131, #23, .T. ) ;
#135 = ADVANCED_FACE ( 'NONE', ( #37 ), #55, .T. ) ;
#136 = ORIENTED_EDGE ( 'NONE', *, *, #124, .T. ) ;
#137 = ORIENTED_EDGE ( 'NONE', *, *, #128, .T. ) ;
#138 = ORIENTED_EDGE ( 'NONE', *, *, #103, .F. ) ;
#139 = AXIS2_PLACEMENT_3D ( 'NONE', #233, #232, #231 ) ;
#140 = CIRCLE ( 'NONE', #139, 2.999999999999999100 ) ;
#141 = DIRECTION ( 'NONE',  ( 1.000000000000000000, 0.0000000000000000000, 0.0000000000000000000 ) ) ;
#142 = DIRECTION ( 'NONE',  ( -0.0000000000000000000, -0.0000000000000000000, 1.000000000000000000 ) ) ;
#143 = CARTESIAN_POINT ( 'NONE',  ( 0.0000000000000000000, 0.0000000000000000000, 0.2659885331902219800 ) ) ;
#144 = AXIS2_PLACEMENT_3D ( 'NONE', #143, #142, #141 ) ;
#145 = DIRECTION ( 'NONE',  ( 1.000000000000000000, 0.0000000000000000000, 0.0000000000000000000 ) ) ;
#146 = DIRECTION ( 'NONE',  ( -0.0000000000000000000, -0.0000000000000000000, 1.000000000000000000 ) ) ;
#147 = CARTESIAN_POINT ( 'NONE',  ( 0.0000000000000000000, 0.0000000000000000000, 4.308132045400366600 ) ) ;
#148 = AXIS2_PLACEMENT_3D ( 'NONE', #147, #146, #145 ) ;
#149 = CIRCLE ( 'NONE', #144, 2.999999999999999100 ) ;
#150 = CYLINDRICAL_SURFACE ( 'NONE', #148, 2.999999999999999100 ) ;
#151 =( GEOMETRIC_REPRESENTATION_CONTEXT ( 3 ) GLOBAL_UNCERTAINTY_ASSIGNED_CONTEXT ( ( #152 ) ) GLOBAL_UNIT_ASSIGNED_CONTEXT ( ( #155, #154, #153 ) ) REPRESENTATION_CONTEXT ( 'NONE', 'WORKASPACE' ) );
#152 = UNCERTAINTY_MEASURE_WITH_UNIT (LENGTH_MEASURE( 1.000000000000000100E-005 ), #155, 'distance_accuracy_value', 'NONE');
#153 =( NAMED_UNIT ( * ) SI_UNIT ( $, .STERADIAN. ) SOLID_ANGLE_UNIT ( ) );
#154 =( NAMED_UNIT ( * ) PLANE_ANGLE_UNIT ( ) SI_UNIT ( $, .RADIAN. ) );
#155 =( LENGTH_UNIT ( ) NAMED_UNIT ( * ) SI_UNIT ( .MILLI., .METRE. ) );
#156 = MECHANICAL_DESIGN_GEOMETRIC_PRESENTATION_REPRESENTATION (  '', ( #158 ), #151 ) ;
#157 = PRESENTATION_LAYER_ASSIGNMENT (  '', '', ( #158 ) ) ;
#158 = STYLED_ITEM ( 'NONE', ( #159 ), #106 ) ;
#159 = PRESENTATION_STYLE_ASSIGNMENT (( #160 ) ) ;
#160 = SURFACE_STYLE_USAGE ( .BOTH. , #161 ) ;
#161 = SURFACE_SIDE_STYLE ('',( #234 ) ) ;
#162 = FACE_OUTER_BOUND ( 'NONE', #90, .T. ) ;
#163 = FILL_AREA_STYLE ('',( #196 ) ) ;
#164 = DIRECTION ( 'NONE',  ( 1.000000000000000000, 0.0000000000000000000, 0.0000000000000000000 ) ) ;
#165 = DIRECTION ( 'NONE',  ( -0.0000000000000000000, -0.0000000000000000000, 1.000000000000000000 ) ) ;
#166 = CARTESIAN_POINT ( 'NONE',  ( 0.0000000000000000000, 0.0000000000000000000, 0.2659885331902219800 ) ) ;
#167 = AXIS2_PLACEMENT_3D ( 'NONE', #166, #165, #164 ) ;
#168 = CIRCLE ( 'NONE', #167, 2.999999999999999100 ) ;
#169 = CARTESIAN_POINT ( 'NONE',  ( -2.999999999999999100, 3.673819061467130800E-016, 0.2659885331902219800 ) ) ;
#170 = DIRECTION ( 'NONE',  ( 1.000000000000000000, 0.0000000000000000000, 0.0000000000000000000 ) ) ;
#171 = DIRECTION ( 'NONE',  ( 0.0000000000000000000, -0.0000000000000000000, 1.000000000000000000 ) ) ;
#172 = CARTESIAN_POINT ( 'NONE',  ( 0.0000000000000000000, 4.518946688853733400E-016, -1.230000000000000000 ) ) ;
#173 = AXIS2_PLACEMENT_3D ( 'NONE', #172, #171, #170 ) ;
#174 = PLANE ( 'NONE',  #173 ) ;
#175 =( GEOMETRIC_REPRESENTATION_CONTEXT ( 3 ) GLOBAL_UNCERTAINTY_ASSIGNED_CONTEXT ( ( #176 ) ) GLOBAL_UNIT_ASSIGNED_CONTEXT ( ( #179, #178, #177 ) ) REPRESENTATION_CONTEXT ( 'NONE', 'WORKASPACE' ) );
#176 = UNCERTAINTY_MEASURE_WITH_UNIT (LENGTH_MEASURE( 1.000000000000000100E-005 ), #179, 'distance_accuracy_value', 'NONE');
#177 =( NAMED_UNIT ( * ) SI_UNIT ( $, .STERADIAN. ) SOLID_ANGLE_UNIT ( ) );
#178 =( NAMED_UNIT ( * ) PLANE_ANGLE_UNIT ( ) SI_UNIT ( $, .RADIAN. ) );
#179 =( LENGTH_UNIT ( ) NAMED_UNIT ( * ) SI_UNIT ( .MILLI., .METRE. ) );
#180 = MECHANICAL_DESIGN_GEOMETRIC_PRESENTATION_REPRESENTATION (  '', ( #182 ), #175 ) ;
#181 = PRESENTATION_LAYER_ASSIGNMENT (  '', '', ( #182 ) ) ;
#182 = STYLED_ITEM ( 'NONE', ( #183 ), #121 ) ;
#183 = PRESENTATION_STYLE_ASSIGNMENT (( #184 ) ) ;
#184 = SURFACE_STYLE_USAGE ( .BOTH. , #185 ) ;
#185 = SURFACE_SIDE_STYLE ('',( #186 ) ) ;
#186 = SURFACE_STYLE_FILL_AREA ( #187 ) ;
#187 = FILL_AREA_STYLE ('',( #188 ) ) ;
#188 = FILL_AREA_STYLE_COLOUR ( '', #189 ) ;
#189 = COLOUR_RGB ( '',0.9568627450980391500, 0.9490196078431372100, 0.9607843137254902200 ) ;
#190 = FACE_OUTER_BOUND ( 'NONE', #109, .T. ) ;
#191 = CARTESIAN_POINT ( 'NONE',  ( 0.0000000000000000000, 2.999999999999998200, 0.2659885331902224200 ) ) ;
#192 =( LENGTH_UNIT ( ) NAMED_UNIT ( * ) SI_UNIT ( .MILLI., .METRE. ) );
#193 =( NAMED_UNIT ( * ) SI_UNIT ( $, .STERADIAN. ) SOLID_ANGLE_UNIT ( ) );
#194 =( NAMED_UNIT ( * ) PLANE_ANGLE_UNIT ( ) SI_UNIT ( $, .RADIAN. ) );
#195 = SURFACE_SIDE_STYLE ('',( #199 ) ) ;
#196 = FILL_AREA_STYLE_COLOUR ( '', #201 ) ;
#197 = SURFACE_STYLE_USAGE ( .BOTH. , #195 ) ;
#198 = MECHANICAL_DESIGN_GEOMETRIC_PRESENTATION_REPRESENTATION (  '', ( #203 ), #260 ) ;
#199 = SURFACE_STYLE_FILL_AREA ( #163 ) ;
#200 = PRESENTATION_LAYER_ASSIGNMENT (  '', '', ( #203 ) ) ;
#201 = COLOUR_RGB ( '',0.9568627450980391500, 0.9490196078431372100, 0.9607843137254902200 ) ;
#202 = PRESENTATION_STYLE_ASSIGNMENT (( #197 ) ) ;
#203 = STYLED_ITEM ( 'NONE', ( #202 ), #92 ) ;
#204 = DIRECTION ( 'NONE',  ( -0.0000000000000000000, -0.0000000000000000000, 1.000000000000000000 ) ) ;
#205 = VECTOR ( 'NONE', #204, 1000.000000000000000 ) ;
#206 = CARTESIAN_POINT ( 'NONE',  ( -2.999999999999999100, 3.673819061467130800E-016, 4.308132045400366600 ) ) ;
#207 = LINE ( 'NONE', #206, #205 ) ;
#208 = CARTESIAN_POINT ( 'NONE',  ( -2.999999999999999100, 3.673819061467130800E-016, -1.230000000000000200 ) ) ;
#209 = CARTESIAN_POINT ( 'NONE',  ( 2.999999999999999100, 0.0000000000000000000, -1.230000000000000200 ) ) ;
#210 = DIRECTION ( 'NONE',  ( 1.000000000000000000, 0.0000000000000000000, 0.0000000000000000000 ) ) ;
#211 = DIRECTION ( 'NONE',  ( -0.0000000000000000000, -0.0000000000000000000, 1.000000000000000000 ) ) ;
#212 = CARTESIAN_POINT ( 'NONE',  ( 0.0000000000000000000, 0.0000000000000000000, -1.230000000000000200 ) ) ;
#213 = AXIS2_PLACEMENT_3D ( 'NONE', #212, #211, #210 ) ;
#214 = CIRCLE ( 'NONE', #213, 2.999999999999999100 ) ;
#215 =( GEOMETRIC_REPRESENTATION_CONTEXT ( 3 ) GLOBAL_UNCERTAINTY_ASSIGNED_CONTEXT ( ( #216 ) ) GLOBAL_UNIT_ASSIGNED_CONTEXT ( ( #219, #218, #217 ) ) REPRESENTATION_CONTEXT ( 'NONE', 'WORKASPACE' ) );
#216 = UNCERTAINTY_MEASURE_WITH_UNIT (LENGTH_MEASURE( 1.000000000000000100E-005 ), #219, 'distance_accuracy_value', 'NONE');
#217 =( NAMED_UNIT ( * ) SI_UNIT ( $, .STERADIAN. ) SOLID_ANGLE_UNIT ( ) );
#218 =( NAMED_UNIT ( * ) PLANE_ANGLE_UNIT ( ) SI_UNIT ( $, .RADIAN. ) );
#219 =( LENGTH_UNIT ( ) NAMED_UNIT ( * ) SI_UNIT ( .MILLI., .METRE. ) );
#220 = MECHANICAL_DESIGN_GEOMETRIC_PRESENTATION_REPRESENTATION (  '', ( #222 ), #215 ) ;
#221 = PRESENTATION_LAYER_ASSIGNMENT (  '', '', ( #222 ) ) ;
#222 = STYLED_ITEM ( 'NONE', ( #223 ), #113 ) ;
#223 = PRESENTATION_STYLE_ASSIGNMENT (( #224 ) ) ;
#224 = SURFACE_STYLE_USAGE ( .BOTH. , #225 ) ;
#225 = SURFACE_SIDE_STYLE ('',( #226 ) ) ;
#226 = SURFACE_STYLE_FILL_AREA ( #227 ) ;
#227 = FILL_AREA_STYLE ('',( #228 ) ) ;
#228 = FILL_AREA_STYLE_COLOUR ( '', #229 ) ;
#229 = COLOUR_RGB ( '',0.7960784313725489700, 0.8235294117647058400, 0.9372549019607843100 ) ;
#230 = CARTESIAN_POINT ( 'NONE',  ( -3.673819061467129300E-016, -2.999999999999998200, 0.2659885331902224200 ) ) ;
#231 = DIRECTION ( 'NONE',  ( 1.000000000000000000, 0.0000000000000000000, 0.0000000000000000000 ) ) ;
#232 = DIRECTION ( 'NONE',  ( -0.0000000000000000000, -0.0000000000000000000, 1.000000000000000000 ) ) ;
#233 = CARTESIAN_POINT ( 'NONE',  ( 0.0000000000000000000, 0.0000000000000000000, 0.2659885331902219800 ) ) ;
#234 = SURFACE_STYLE_FILL_AREA ( #235 ) ;
#235 = FILL_AREA_STYLE ('',( #236 ) ) ;
#236 = FILL_AREA_STYLE_COLOUR ( '', #237 ) ;
#237 = COLOUR_RGB ( '',0.9568627450980391500, 0.9490196078431372100, 0.9607843137254902200 ) ;
#238 = DIRECTION ( 'NONE',  ( 1.000000000000000000, 0.0000000000000000000, 0.0000000000000000000 ) ) ;
#239 = DIRECTION ( 'NONE',  ( -0.0000000000000000000, -0.0000000000000000000, 1.000000000000000000 ) ) ;
#240 = CARTESIAN_POINT ( 'NONE',  ( 0.0000000000000000000, 0.0000000000000000000, 0.2659885331902219800 ) ) ;
#241 = AXIS2_PLACEMENT_3D ( 'NONE', #240, #239, #238 ) ;
#242 = CIRCLE ( 'NONE', #241, 2.999999999999999100 ) ;
#243 = FACE_OUTER_BOUND ( 'NONE', #100, .T. ) ;
#244 = CARTESIAN_POINT ( 'NONE',  ( 0.0000000000000000000, 3.153361361092620100E-016, 1.230000000000002000 ) ) ;
#245 = DIRECTION ( 'NONE',  ( -1.224606353822377000E-016, -1.000000000000000000, 0.0000000000000000000 ) ) ;
#246 = DIRECTION ( 'NONE',  ( -1.000000000000000000, 1.224606353822377300E-016, 0.0000000000000000000 ) ) ;
#247 = CARTESIAN_POINT ( 'NONE',  ( 0.0000000000000000000, 0.0000000000000000000, -3.919999999999996400 ) ) ;
#248 = AXIS2_PLACEMENT_3D ( 'NONE', #247, #246, #245 ) ;
#249 = CIRCLE ( 'NONE', #248, 5.149999999999998600 ) ;
#250 = DIRECTION ( 'NONE',  ( 0.0000000000000000000, 0.0000000000000000000, -1.000000000000000000 ) ) ;
#251 = DIRECTION ( 'NONE',  ( 1.000000000000000000, 0.0000000000000000000, 0.0000000000000000000 ) ) ;
#252 = CARTESIAN_POINT ( 'NONE',  ( 0.0000000000000000000, 0.0000000000000000000, -3.919999999999996400 ) ) ;
#253 = AXIS2_PLACEMENT_3D ( 'NONE', #252, #251, #250 ) ;
#254 = DIRECTION ( 'NONE',  ( 0.0000000000000000000, 1.000000000000000000, 0.0000000000000000000 ) ) ;
#255 = DIRECTION ( 'NONE',  ( -1.000000000000000000, 0.0000000000000000000, 0.0000000000000000000 ) ) ;
#256 = CARTESIAN_POINT ( 'NONE',  ( 0.0000000000000000000, 0.0000000000000000000, -3.919999999999996400 ) ) ;
#257 = AXIS2_PLACEMENT_3D ( 'NONE', #256, #255, #254 ) ;
#258 = CIRCLE ( 'NONE', #253, 5.149999999999998600 ) ;
#259 = SPHERICAL_SURFACE ( 'NONE', #257, 5.149999999999998600 ) ;
#260 =( GEOMETRIC_REPRESENTATION_CONTEXT ( 3 ) GLOBAL_UNCERTAINTY_ASSIGNED_CONTEXT ( ( #261 ) ) GLOBAL_UNIT_ASSIGNED_CONTEXT ( ( #192, #194, #193 ) ) REPRESENTATION_CONTEXT ( 'NONE', 'WORKASPACE' ) );
#261 = UNCERTAINTY_MEASURE_WITH_UNIT (LENGTH_MEASURE( 1.000000000000000100E-005 ), #192, 'distance_accuracy_value', 'NONE');
ENDSEC;
END-ISO-10303-21;
