ISO-10303-21;
HEADER;
FILE_DESCRIPTION (( 'STEP AP203' ),
    '1' );
FILE_NAME ('Web Model 36656MX_36656.step',
    '2017-10-31T14:04:15',
    ( '' ),
    ( '' ),
    'SwSTEP 2.0',
    'SolidWorks 2016',
    '' );
FILE_SCHEMA (( 'CONFIG_CONTROL_DESIGN' ));
ENDSEC;

DATA;
#1 = LINE ( 'NONE', #3, #139 ) ;
#2 = CC_DESIGN_DATE_AND_TIME_ASSIGNMENT ( #58, #21, ( #149 ) ) ;
#3 = CARTESIAN_POINT ( 'NONE',  ( 12.50000000000000000, 1.530808498934191500E-015, 1.000000000000000000 ) ) ;
#4 = PRODUCT_DEFINITION_SHAPE ( 'NONE', 'NONE',  #149 ) ;
#5 = LOCAL_TIME ( 10, 4, 15.00000000000000000, #107 ) ;
#6 = VERTEX_POINT ( 'NONE', #98 ) ;
#7 = DIRECTION ( 'NONE',  ( -1.000000000000000000, 0.0000000000000000000, 0.0000000000000000000 ) ) ;
#8 = AXIS2_PLACEMENT_3D ( 'NONE', #20, #131, #53 ) ;
#9 = ORIENTED_EDGE ( 'NONE', *, *, #165, .T. ) ;
#10 = DIRECTION ( 'NONE',  ( 1.000000000000000000, 0.0000000000000000000, 0.0000000000000000000 ) ) ;
#11 = PERSON_AND_ORGANIZATION_ROLE ( 'classification_officer' ) ;
#12 = PERSON_AND_ORGANIZATION_ROLE ( 'creator' ) ;
#13 = LOCAL_TIME ( 10, 4, 15.00000000000000000, #83 ) ;
#14 =( NAMED_UNIT ( * ) PLANE_ANGLE_UNIT ( ) SI_UNIT ( $, .RADIAN. ) );
#15 = ORIENTED_EDGE ( 'NONE', *, *, #57, .T. ) ;
#16 = PERSON_AND_ORGANIZATION ( #129, #87 ) ;
#17 = CARTESIAN_POINT ( 'NONE',  ( -12.50000000000000000, 0.0000000000000000000, -1.000000000000000000 ) ) ;
#18 = SHAPE_DEFINITION_REPRESENTATION ( #4, #54 ) ;
#19 = CARTESIAN_POINT ( 'NONE',  ( 0.0000000000000000000, 0.0000000000000000000, 1.000000000000000000 ) ) ;
#20 = CARTESIAN_POINT ( 'NONE',  ( 0.0000000000000000000, 0.0000000000000000000, 1.000000000000000000 ) ) ;
#21 = DATE_TIME_ROLE ( 'creation_date' ) ;
#22 =( NAMED_UNIT ( * ) SI_UNIT ( $, .STERADIAN. ) SOLID_ANGLE_UNIT ( ) );
#23 = AXIS2_PLACEMENT_3D ( 'NONE', #94, #50, #146 ) ;
#24 = AXIS2_PLACEMENT_3D ( 'NONE', #19, #115, #130 ) ;
#25 = EDGE_LOOP ( 'NONE', ( #42, #97 ) ) ;
#26 = AXIS2_PLACEMENT_3D ( 'NONE', #34, #93, #10 ) ;
#27 = EDGE_CURVE ( 'NONE', #125, #6, #1, .T. ) ;
#28 = VECTOR ( 'NONE', #158, 1000.000000000000000 ) ;
#29 = ADVANCED_FACE ( 'NONE', ( #113 ), #40, .T. ) ;
#30 = CIRCLE ( 'NONE', #73, 12.50000000000000000 ) ;
#31 = APPROVAL_PERSON_ORGANIZATION ( #16, #72, #81 ) ;
#32 = CARTESIAN_POINT ( 'NONE',  ( -12.50000000000000000, 0.0000000000000000000, 1.000000000000000000 ) ) ;
#33 = CARTESIAN_POINT ( 'NONE',  ( 0.0000000000000000000, 0.0000000000000000000, -1.000000000000000000 ) ) ;
#34 = CARTESIAN_POINT ( 'NONE',  ( 0.0000000000000000000, 0.0000000000000000000, 0.0000000000000000000 ) ) ;
#35 = APPROVAL_STATUS ( 'not_yet_approved' ) ;
#36 = PRODUCT_DEFINITION_FORMATION_WITH_SPECIFIED_SOURCE ( 'ANY', '', #170, .NOT_KNOWN. ) ;
#37 = DATE_AND_TIME ( #76, #13 ) ;
#38 = ORIENTED_EDGE ( 'NONE', *, *, #39, .F. ) ;
#39 = EDGE_CURVE ( 'NONE', #84, #125, #62, .T. ) ;
#40 = CYLINDRICAL_SURFACE ( 'NONE', #159, 12.50000000000000000 ) ;
#41 = COORDINATED_UNIVERSAL_TIME_OFFSET ( 5, 0, .BEHIND. ) ;
#42 = ORIENTED_EDGE ( 'NONE', *, *, #39, .T. ) ;
#43 = ADVANCED_FACE ( 'NONE', ( #69 ), #49, .T. ) ;
#44 = DIRECTION ( 'NONE',  ( 1.000000000000000000, 0.0000000000000000000, -0.0000000000000000000 ) ) ;
#45 = PERSON_AND_ORGANIZATION ( #129, #87 ) ;
#46 = EDGE_LOOP ( 'NONE', ( #71, #156, #74, #95 ) ) ;
#47 = DIRECTION ( 'NONE',  ( 0.0000000000000000000, 0.0000000000000000000, 1.000000000000000000 ) ) ;
#48 = CARTESIAN_POINT ( 'NONE',  ( 0.0000000000000000000, 0.0000000000000000000, 1.000000000000000000 ) ) ;
#49 = PLANE ( 'NONE',  #63 ) ;
#50 = DIRECTION ( 'NONE',  ( 0.0000000000000000000, 0.0000000000000000000, 1.000000000000000000 ) ) ;
#51 = PERSON_AND_ORGANIZATION_ROLE ( 'creator' ) ;
#52 = APPROVAL_DATE_TIME ( #37, #85 ) ;
#53 = DIRECTION ( 'NONE',  ( -1.000000000000000000, 0.0000000000000000000, 0.0000000000000000000 ) ) ;
#54 = ADVANCED_BREP_SHAPE_REPRESENTATION ( 'Web Model 36656MX_36656', ( #110, #26 ), #123 ) ;
#55 = DATE_TIME_ROLE ( 'classification_date' ) ;
#56 = CYLINDRICAL_SURFACE ( 'NONE', #8, 12.50000000000000000 ) ;
#57 = EDGE_CURVE ( 'NONE', #84, #77, #67, .T. ) ;
#58 = DATE_AND_TIME ( #96, #135 ) ;
#59 = CC_DESIGN_DATE_AND_TIME_ASSIGNMENT ( #141, #55, ( #121 ) ) ;
#60 = LOCAL_TIME ( 10, 4, 15.00000000000000000, #109 ) ;
#61 = CC_DESIGN_PERSON_AND_ORGANIZATION_ASSIGNMENT ( #66, #51, ( #36 ) ) ;
#62 = CIRCLE ( 'NONE', #147, 12.50000000000000000 ) ;
#63 = AXIS2_PLACEMENT_3D ( 'NONE', #100, #157, #44 ) ;
#64 = CARTESIAN_POINT ( 'NONE',  ( 12.50000000000000000, 1.530808498934191500E-015, 1.000000000000000000 ) ) ;
#65 = PERSON_AND_ORGANIZATION_ROLE ( 'design_owner' ) ;
#66 = PERSON_AND_ORGANIZATION ( #129, #87 ) ;
#67 = LINE ( 'NONE', #32, #28 ) ;
#68 = EDGE_CURVE ( 'NONE', #125, #84, #171, .T. ) ;
#69 = FACE_OUTER_BOUND ( 'NONE', #25, .T. ) ;
#70 = CC_DESIGN_APPROVAL ( #85, ( #121 ) ) ;
#71 = ORIENTED_EDGE ( 'NONE', *, *, #68, .F. ) ;
#72 = APPROVAL ( #144, 'UNSPECIFIED' ) ;
#73 = AXIS2_PLACEMENT_3D ( 'NONE', #33, #117, #102 ) ;
#74 = ORIENTED_EDGE ( 'NONE', *, *, #108, .T. ) ;
#75 = PRODUCT_RELATED_PRODUCT_CATEGORY ( 'detail', '', ( #170 ) ) ;
#76 = CALENDAR_DATE ( 2017, 31, 10 ) ;
#77 = VERTEX_POINT ( 'NONE', #17 ) ;
#78 = DIRECTION ( 'NONE',  ( 1.000000000000000000, 0.0000000000000000000, 0.0000000000000000000 ) ) ;
#79 =( LENGTH_UNIT ( ) NAMED_UNIT ( * ) SI_UNIT ( .MILLI., .METRE. ) );
#80 = ORIENTED_EDGE ( 'NONE', *, *, #27, .F. ) ;
#81 = APPROVAL_ROLE ( '' ) ;
#82 = APPROVAL_DATE_TIME ( #138, #72 ) ;
#83 = COORDINATED_UNIVERSAL_TIME_OFFSET ( 5, 0, .BEHIND. ) ;
#84 = VERTEX_POINT ( 'NONE', #127 ) ;
#85 = APPROVAL ( #91, 'UNSPECIFIED' ) ;
#86 = CALENDAR_DATE ( 2017, 31, 10 ) ;
#87 = ORGANIZATION ( 'UNSPECIFIED', 'UNSPECIFIED', '' ) ;
#88 = CC_DESIGN_SECURITY_CLASSIFICATION ( #121, ( #36 ) ) ;
#89 = APPROVAL_PERSON_ORGANIZATION ( #119, #85, #105 ) ;
#90 = PERSON_AND_ORGANIZATION ( #129, #87 ) ;
#91 = APPROVAL_STATUS ( 'not_yet_approved' ) ;
#92 = APPLICATION_CONTEXT ( 'configuration controlled 3d designs of mechanical parts and assemblies' ) ;
#93 = DIRECTION ( 'NONE',  ( 0.0000000000000000000, 0.0000000000000000000, 1.000000000000000000 ) ) ;
#94 = CARTESIAN_POINT ( 'NONE',  ( 0.0000000000000000000, 0.0000000000000000000, -1.000000000000000000 ) ) ;
#95 = ORIENTED_EDGE ( 'NONE', *, *, #57, .F. ) ;
#96 = CALENDAR_DATE ( 2017, 31, 10 ) ;
#97 = ORIENTED_EDGE ( 'NONE', *, *, #68, .T. ) ;
#98 = CARTESIAN_POINT ( 'NONE',  ( 12.50000000000000000, 1.530808498934191500E-015, -1.000000000000000000 ) ) ;
#99 = COORDINATED_UNIVERSAL_TIME_OFFSET ( 5, 0, .BEHIND. ) ;
#100 = CARTESIAN_POINT ( 'NONE',  ( 0.0000000000000000000, 0.0000000000000000000, 1.000000000000000000 ) ) ;
#101 = CIRCLE ( 'NONE', #23, 12.50000000000000000 ) ;
#102 = DIRECTION ( 'NONE',  ( 1.000000000000000000, 0.0000000000000000000, 0.0000000000000000000 ) ) ;
#103 = DIRECTION ( 'NONE',  ( 0.0000000000000000000, 0.0000000000000000000, 1.000000000000000000 ) ) ;
#104 = ORIENTED_EDGE ( 'NONE', *, *, #165, .F. ) ;
#105 = APPROVAL_ROLE ( '' ) ;
#106 = DATE_AND_TIME ( #86, #120 ) ;
#107 = COORDINATED_UNIVERSAL_TIME_OFFSET ( 5, 0, .BEHIND. ) ;
#108 = EDGE_CURVE ( 'NONE', #6, #77, #30, .T. ) ;
#109 = COORDINATED_UNIVERSAL_TIME_OFFSET ( 5, 0, .BEHIND. ) ;
#110 = MANIFOLD_SOLID_BREP ( 'Boss-Extrude1', #175 ) ;
#111 = DIRECTION ( 'NONE',  ( -0.0000000000000000000, -0.0000000000000000000, -1.000000000000000000 ) ) ;
#112 = APPROVAL_DATE_TIME ( #106, #168 ) ;
#113 = FACE_OUTER_BOUND ( 'NONE', #46, .T. ) ;
#114 = CARTESIAN_POINT ( 'NONE',  ( 0.0000000000000000000, 0.0000000000000000000, 1.000000000000000000 ) ) ;
#115 = DIRECTION ( 'NONE',  ( 0.0000000000000000000, 0.0000000000000000000, 1.000000000000000000 ) ) ;
#116 = DIRECTION ( 'NONE',  ( 1.000000000000000000, 0.0000000000000000000, -0.0000000000000000000 ) ) ;
#117 = DIRECTION ( 'NONE',  ( 0.0000000000000000000, 0.0000000000000000000, 1.000000000000000000 ) ) ;
#118 = APPLICATION_PROTOCOL_DEFINITION ( 'international standard', 'config_control_design', 1994, #92 ) ;
#119 = PERSON_AND_ORGANIZATION ( #129, #87 ) ;
#120 = LOCAL_TIME ( 10, 4, 15.00000000000000000, #41 ) ;
#121 = SECURITY_CLASSIFICATION ( '', '', #161 ) ;
#122 = PERSON_AND_ORGANIZATION ( #129, #87 ) ;
#123 =( GEOMETRIC_REPRESENTATION_CONTEXT ( 3 ) GLOBAL_UNCERTAINTY_ASSIGNED_CONTEXT ( ( #164 ) ) GLOBAL_UNIT_ASSIGNED_CONTEXT ( ( #79, #14, #22 ) ) REPRESENTATION_CONTEXT ( 'NONE', 'WORKASPACE' ) );
#124 = ADVANCED_FACE ( 'NONE', ( #166 ), #56, .T. ) ;
#125 = VERTEX_POINT ( 'NONE', #64 ) ;
#126 = DIRECTION ( 'NONE',  ( -0.0000000000000000000, -0.0000000000000000000, -1.000000000000000000 ) ) ;
#127 = CARTESIAN_POINT ( 'NONE',  ( -12.50000000000000000, 0.0000000000000000000, 1.000000000000000000 ) ) ;
#128 = CC_DESIGN_PERSON_AND_ORGANIZATION_ASSIGNMENT ( #45, #12, ( #149 ) ) ;
#129 = PERSON ( 'UNSPECIFIED', 'UNSPECIFIED', 'UNSPECIFIED', ('UNSPECIFIED'), ('UNSPECIFIED'), ('UNSPECIFIED') ) ;
#130 = DIRECTION ( 'NONE',  ( 1.000000000000000000, 0.0000000000000000000, 0.0000000000000000000 ) ) ;
#131 = DIRECTION ( 'NONE',  ( -0.0000000000000000000, -0.0000000000000000000, -1.000000000000000000 ) ) ;
#132 = APPLICATION_CONTEXT ( 'configuration controlled 3d designs of mechanical parts and assemblies' ) ;
#133 = APPLICATION_PROTOCOL_DEFINITION ( 'international standard', 'config_control_design', 1994, #132 ) ;
#134 = CARTESIAN_POINT ( 'NONE',  ( 0.0000000000000000000, 0.0000000000000000000, -1.000000000000000000 ) ) ;
#135 = LOCAL_TIME ( 10, 4, 15.00000000000000000, #99 ) ;
#136 = CC_DESIGN_APPROVAL ( #168, ( #36 ) ) ;
#137 = CC_DESIGN_PERSON_AND_ORGANIZATION_ASSIGNMENT ( #122, #169, ( #36 ) ) ;
#138 = DATE_AND_TIME ( #173, #5 ) ;
#139 = VECTOR ( 'NONE', #111, 1000.000000000000000 ) ;
#140 = EDGE_LOOP ( 'NONE', ( #104, #150 ) ) ;
#141 = DATE_AND_TIME ( #151, #60 ) ;
#142 = CC_DESIGN_PERSON_AND_ORGANIZATION_ASSIGNMENT ( #90, #11, ( #121 ) ) ;
#143 = CC_DESIGN_APPROVAL ( #72, ( #149 ) ) ;
#144 = APPROVAL_STATUS ( 'not_yet_approved' ) ;
#145 = PERSON_AND_ORGANIZATION ( #129, #87 ) ;
#146 = DIRECTION ( 'NONE',  ( 1.000000000000000000, 0.0000000000000000000, 0.0000000000000000000 ) ) ;
#147 = AXIS2_PLACEMENT_3D ( 'NONE', #114, #47, #78 ) ;
#148 = EDGE_LOOP ( 'NONE', ( #80, #38, #15, #9 ) ) ;
#149 = PRODUCT_DEFINITION ( 'UNKNOWN', '', #36, #152 ) ;
#150 = ORIENTED_EDGE ( 'NONE', *, *, #108, .F. ) ;
#151 = CALENDAR_DATE ( 2017, 31, 10 ) ;
#152 = DESIGN_CONTEXT ( 'detailed design', #132, 'design' ) ;
#153 = AXIS2_PLACEMENT_3D ( 'NONE', #134, #103, #116 ) ;
#154 = ADVANCED_FACE ( 'NONE', ( #163 ), #172, .F. ) ;
#155 = APPROVAL_PERSON_ORGANIZATION ( #162, #168, #160 ) ;
#156 = ORIENTED_EDGE ( 'NONE', *, *, #27, .T. ) ;
#157 = DIRECTION ( 'NONE',  ( 0.0000000000000000000, 0.0000000000000000000, 1.000000000000000000 ) ) ;
#158 = DIRECTION ( 'NONE',  ( -0.0000000000000000000, -0.0000000000000000000, -1.000000000000000000 ) ) ;
#159 = AXIS2_PLACEMENT_3D ( 'NONE', #48, #126, #7 ) ;
#160 = APPROVAL_ROLE ( '' ) ;
#161 = SECURITY_CLASSIFICATION_LEVEL ( 'unclassified' ) ;
#162 = PERSON_AND_ORGANIZATION ( #129, #87 ) ;
#163 = FACE_OUTER_BOUND ( 'NONE', #140, .T. ) ;
#164 = UNCERTAINTY_MEASURE_WITH_UNIT (LENGTH_MEASURE( 1.000000000000000100E-005 ), #79, 'distance_accuracy_value', 'NONE');
#165 = EDGE_CURVE ( 'NONE', #77, #6, #101, .T. ) ;
#166 = FACE_OUTER_BOUND ( 'NONE', #148, .T. ) ;
#167 = MECHANICAL_CONTEXT ( 'NONE', #92, 'mechanical' ) ;
#168 = APPROVAL ( #35, 'UNSPECIFIED' ) ;
#169 = PERSON_AND_ORGANIZATION_ROLE ( 'design_supplier' ) ;
#170 = PRODUCT ( 'Web Model 36656MX_36656', 'Web Model 36656MX_36656', '', ( #167 ) ) ;
#171 = CIRCLE ( 'NONE', #24, 12.50000000000000000 ) ;
#172 = PLANE ( 'NONE',  #153 ) ;
#173 = CALENDAR_DATE ( 2017, 31, 10 ) ;
#174 = CC_DESIGN_PERSON_AND_ORGANIZATION_ASSIGNMENT ( #145, #65, ( #170 ) ) ;
#175 = CLOSED_SHELL ( 'NONE', ( #29, #124, #43, #154 ) ) ;
ENDSEC;
END-ISO-10303-21;
