ISO-10303-21;
HEADER;
FILE_DESCRIPTION (( 'STEP AP203' ),
    '1' );
FILE_NAME ('TTN023913-E0W.STEP',
    '2014-04-22T14:51:36',
    ( 'admin' ),
    ( '' ),
    'SwSTEP 2.0',
    'SolidWorks 2012',
    '' );
FILE_SCHEMA (( 'CONFIG_CONTROL_DESIGN' ));
ENDSEC;

DATA;
#1 = FACE_OUTER_BOUND ( 'NONE', #213, .T. ) ;
#2 = CONICAL_SURFACE ( 'NONE', #242, 0.5000000000000006700, 0.7853981633974482800 ) ;
#3 = DESIGN_CONTEXT ( 'detailed design', #68, 'design' ) ;
#4 = PRODUCT_DEFINITION_SHAPE ( 'NONE', 'NONE',  #252 ) ;
#5 = VECTOR ( 'NONE', #172, 39.37007874015748100 ) ;
#6 = VECTOR ( 'NONE', #168, 39.37007874015748100 ) ;
#7 = LINE ( 'NONE', #176, #5 ) ;
#8 = CIRCLE ( 'NONE', #260, 2.763779527559049800 ) ;
#9 = LINE ( 'NONE', #25, #192 ) ;
#10 = COORDINATED_UNIVERSAL_TIME_OFFSET ( 5, 0, .BEHIND. ) ;
#11 = CALENDAR_DATE ( 2014, 22, 4 ) ;
#12 = LOCAL_TIME ( 10, 51, 36.00000000000000000, #10 ) ;
#13 = CARTESIAN_POINT ( 'NONE',  ( 0.0000000000000000000, -3.530088881731005900E-016, 0.07874015748030792300 ) ) ;
#14 = CARTESIAN_POINT ( 'NONE',  ( 6.075019554825461000E-017, 0.4921259842519691800, -0.07874015748031494600 ) ) ;
#15 = CARTESIAN_POINT ( 'NONE',  ( 0.0000000000000000000, 0.4921259842519690700, 0.03457260455634493500 ) ) ;
#16 = CARTESIAN_POINT ( 'NONE',  ( 0.0000000000000000000, -0.4921259842519691800, -0.07874015748031081000 ) ) ;
#17 = CYLINDRICAL_SURFACE ( 'NONE', #269, 0.5000000000000006700 ) ;
#18 = CONICAL_SURFACE ( 'NONE', #268, 0.4921259842519686300, 0.7853981633974559400 ) ;
#19 = FACE_OUTER_BOUND ( 'NONE', #211, .T. ) ;
#20 = FACE_OUTER_BOUND ( 'NONE', #234, .T. ) ;
#21 = FACE_OUTER_BOUND ( 'NONE', #231, .T. ) ;
#22 = FACE_OUTER_BOUND ( 'NONE', #229, .T. ) ;
#23 = SPHERICAL_SURFACE ( 'NONE', #243, 2.763779527559049800 ) ;
#24 = DIRECTION ( 'NONE',  ( 0.0000000000000000000, 0.0000000000000000000, 1.000000000000000000 ) ) ;
#25 = CARTESIAN_POINT ( 'NONE',  ( 6.123233995736774700E-017, 0.5000000000000006700, -0.07086614173228346400 ) ) ;
#26 = DIRECTION ( 'NONE',  ( 8.659560562354930400E-017, 0.7071067811865503500, 0.7071067811865444600 ) ) ;
#27 = CARTESIAN_POINT ( 'NONE',  ( 0.0000000000000000000, 0.5000000000000006700, -0.07874015748031480700 ) ) ;
#28 = DIRECTION ( 'NONE',  ( 0.0000000000000000000, -1.000000000000000000, 4.200216290258799300E-015 ) ) ;
#29 = DIRECTION ( 'NONE',  ( -0.0000000000000000000, 3.061515884555943100E-016, -1.000000000000000000 ) ) ;
#30 = DIRECTION ( 'NONE',  ( 0.0000000000000000000, 4.205981503748464600E-015, 1.000000000000000000 ) ) ;
#31 = CARTESIAN_POINT ( 'NONE',  ( 0.0000000000000000000, 3.238939167314457100E-016, -2.685039370078741600 ) ) ;
#32 = DIRECTION ( 'NONE',  ( 1.000000000000000000, 0.0000000000000000000, -0.0000000000000000000 ) ) ;
#33 = DIRECTION ( 'NONE',  ( 0.0000000000000000000, 1.000000000000000000, 3.953785700232046800E-016 ) ) ;
#34 = DIRECTION ( 'NONE',  ( 0.0000000000000000000, 1.000000000000000000, -4.206704429243756400E-015 ) ) ;
#35 = CARTESIAN_POINT ( 'NONE',  ( 0.0000000000000000000, 3.311796459645411100E-017, -0.07086614173228136800 ) ) ;
#36 = DIRECTION ( 'NONE',  ( -0.0000000000000000000, -4.205981503748464600E-015, -1.000000000000000000 ) ) ;
#37 = DIRECTION ( 'NONE',  ( 1.000000000000000000, 0.0000000000000000000, -0.0000000000000000000 ) ) ;
#38 = CARTESIAN_POINT ( 'NONE',  ( 0.0000000000000000000, 4.765913812648521500E-016, 0.03457260455634700300 ) ) ;
#39 = CARTESIAN_POINT ( 'NONE',  ( 0.0000000000000000000, 3.238939167314457100E-016, -2.685039370078741600 ) ) ;
#40 = DIRECTION ( 'NONE',  ( 0.0000000000000000000, -1.000000000000000000, 4.200216290258799300E-015 ) ) ;
#41 = DIRECTION ( 'NONE',  ( 0.0000000000000000000, 4.205981503748464600E-015, 1.000000000000000000 ) ) ;
#42 = DIRECTION ( 'NONE',  ( 0.0000000000000000000, 1.000000000000000000, 3.953785700232046800E-016 ) ) ;
#43 = CARTESIAN_POINT ( 'NONE',  ( 0.0000000000000000000, 3.365256830582755500E-017, -0.07874015748031502900 ) ) ;
#44 = CARTESIAN_POINT ( 'NONE',  ( 0.0000000000000000000, 3.311796459645411100E-017, -0.07086614173228136800 ) ) ;
#45 = PLANE ( 'NONE',  #238 ) ;
#46 = DIRECTION ( 'NONE',  ( 0.0000000000000000000, 1.000000000000000000, -4.206704429243756400E-015 ) ) ;
#47 = DIRECTION ( 'NONE',  ( 0.0000000000000000000, 1.000000000000000000, 3.073328992872292400E-016 ) ) ;
#48 = DIRECTION ( 'NONE',  ( -0.0000000000000000000, 3.061515884555943100E-016, -1.000000000000000000 ) ) ;
#49 = DIRECTION ( 'NONE',  ( 0.0000000000000000000, 1.000000000000000000, 3.061515884555943100E-016 ) ) ;
#50 = DIRECTION ( 'NONE',  ( -0.0000000000000000000, -4.205981503748464600E-015, -1.000000000000000000 ) ) ;
#51 = CARTESIAN_POINT ( 'NONE',  ( 0.0000000000000000000, 4.765913812648521500E-016, 0.03457260455634700300 ) ) ;
#52 = DIRECTION ( 'NONE',  ( -0.0000000000000000000, 3.061515884555943100E-016, -1.000000000000000000 ) ) ;
#53 = DIRECTION ( 'NONE',  ( 0.0000000000000000000, 1.000000000000000000, 3.073328992872292400E-016 ) ) ;
#54 = CARTESIAN_POINT ( 'NONE',  ( 0.0000000000000000000, 3.365256830582753600E-017, -0.07874015748031496000 ) ) ;
#55 = DIRECTION ( 'NONE',  ( -0.0000000000000000000, 3.061515884555943100E-016, -1.000000000000000000 ) ) ;
#56 = CARTESIAN_POINT ( 'NONE',  ( 0.0000000000000000000, 3.365256830582753600E-017, -0.07874015748031496000 ) ) ;
#57 =( LENGTH_UNIT ( ) NAMED_UNIT ( * ) SI_UNIT ( $, .METRE. ) );
#58 =( CONVERSION_BASED_UNIT ( 'INCH', #276 ) LENGTH_UNIT ( ) NAMED_UNIT ( #288 ) );
#59 =( NAMED_UNIT ( * ) PLANE_ANGLE_UNIT ( ) SI_UNIT ( $, .RADIAN. ) );
#60 =( NAMED_UNIT ( * ) SI_UNIT ( $, .STERADIAN. ) SOLID_ANGLE_UNIT ( ) );
#61 = APPLICATION_PROTOCOL_DEFINITION ( 'international standard', 'config_control_design', 1994, #62 ) ;
#62 = APPLICATION_CONTEXT ( 'configuration controlled 3d designs of mechanical parts and assemblies' ) ;
#63 = CARTESIAN_POINT ( 'NONE',  ( 0.0000000000000000000, 0.0000000000000000000, 0.0000000000000000000 ) ) ;
#64 = DIRECTION ( 'NONE',  ( 0.0000000000000000000, 0.0000000000000000000, 1.000000000000000000 ) ) ;
#65 = DIRECTION ( 'NONE',  ( 1.000000000000000000, 0.0000000000000000000, 0.0000000000000000000 ) ) ;
#66 = MECHANICAL_CONTEXT ( 'NONE', #62, 'mechanical' ) ;
#67 = PERSON_AND_ORGANIZATION_ROLE ( 'design_owner' ) ;
#68 = APPLICATION_CONTEXT ( 'configuration controlled 3d designs of mechanical parts and assemblies' ) ;
#69 = APPLICATION_PROTOCOL_DEFINITION ( 'international standard', 'config_control_design', 1994, #68 ) ;
#70 = APPROVAL_STATUS ( 'not_yet_approved' ) ;
#71 = APPROVAL_ROLE ( '' ) ;
#72 = PERSON_AND_ORGANIZATION_ROLE ( 'creator' ) ;
#73 = DATE_TIME_ROLE ( 'creation_date' ) ;
#74 = APPROVAL_STATUS ( 'not_yet_approved' ) ;
#75 = APPROVAL_ROLE ( '' ) ;
#76 = PERSON_AND_ORGANIZATION_ROLE ( 'creator' ) ;
#77 = PERSON_AND_ORGANIZATION_ROLE ( 'design_supplier' ) ;
#78 = SECURITY_CLASSIFICATION_LEVEL ( 'unclassified' ) ;
#79 = PERSON_AND_ORGANIZATION_ROLE ( 'classification_officer' ) ;
#80 = DATE_TIME_ROLE ( 'classification_date' ) ;
#81 = APPROVAL_STATUS ( 'not_yet_approved' ) ;
#82 = APPROVAL_ROLE ( '' ) ;
#83 = DIRECTION ( 'NONE',  ( -0.0000000000000000000, -4.205981503748464600E-015, -1.000000000000000000 ) ) ;
#84 = CARTESIAN_POINT ( 'NONE',  ( 0.0000000000000000000, 4.765913812648521500E-016, 0.03457260455634700300 ) ) ;
#85 = CARTESIAN_POINT ( 'NONE',  ( 0.0000000000000000000, 0.5000000000000006700, -0.07086614173228346400 ) ) ;
#86 = DIRECTION ( 'NONE',  ( 0.0000000000000000000, 1.000000000000000000, -4.206704429243756400E-015 ) ) ;
#87 = CARTESIAN_POINT ( 'NONE',  ( 0.0000000000000000000, 3.311796459645411100E-017, -0.07086614173228136800 ) ) ;
#88 = DIRECTION ( 'NONE',  ( -0.0000000000000000000, -4.205981503748464600E-015, -1.000000000000000000 ) ) ;
#89 = APPROVAL_PERSON_ORGANIZATION ( #90, #299, #71 ) ;
#90 = PERSON_AND_ORGANIZATION ( #117, #91 ) ;
#91 = ORGANIZATION ( 'UNSPECIFIED', 'UNSPECIFIED', '' ) ;
#92 = PERSON_AND_ORGANIZATION ( #117, #91 ) ;
#93 = DATE_AND_TIME ( #107, #108 ) ;
#94 = CALENDAR_DATE ( 2014, 22, 4 ) ;
#95 = LOCAL_TIME ( 10, 51, 36.00000000000000000, #99 ) ;
#96 = APPROVAL_PERSON_ORGANIZATION ( #110, #290, #82 ) ;
#97 = APPROVAL_DATE_TIME ( #104, #302 ) ;
#98 = APPROVAL_DATE_TIME ( #93, #290 ) ;
#99 = COORDINATED_UNIVERSAL_TIME_OFFSET ( 5, 0, .BEHIND. ) ;
#100 = APPROVAL_PERSON_ORGANIZATION ( #196, #302, #75 ) ;
#101 = PERSON_AND_ORGANIZATION ( #117, #91 ) ;
#102 = CALENDAR_DATE ( 2014, 22, 4 ) ;
#103 = PERSON_AND_ORGANIZATION ( #117, #91 ) ;
#104 = DATE_AND_TIME ( #94, #111 ) ;
#105 = DATE_AND_TIME ( #102, #95 ) ;
#106 = PERSON_AND_ORGANIZATION ( #117, #91 ) ;
#107 = CALENDAR_DATE ( 2014, 22, 4 ) ;
#108 = LOCAL_TIME ( 10, 51, 36.00000000000000000, #112 ) ;
#109 = COORDINATED_UNIVERSAL_TIME_OFFSET ( 5, 0, .BEHIND. ) ;
#110 = PERSON_AND_ORGANIZATION ( #117, #91 ) ;
#111 = LOCAL_TIME ( 10, 51, 36.00000000000000000, #109 ) ;
#112 = COORDINATED_UNIVERSAL_TIME_OFFSET ( 5, 0, .BEHIND. ) ;
#113 = FACE_OUTER_BOUND ( 'NONE', #212, .T. ) ;
#114 = FACE_OUTER_BOUND ( 'NONE', #232, .T. ) ;
#115 = CONICAL_SURFACE ( 'NONE', #262, 0.4921259842519686300, 0.7853981633974559400 ) ;
#116 = PRODUCT ( 'TTN023913-E0W', 'TTN023913-E0W', '', ( #66 ) ) ;
#117 = PERSON ( 'UNSPECIFIED', 'UNSPECIFIED', 'UNSPECIFIED', ('UNSPECIFIED'), ('UNSPECIFIED'), ('UNSPECIFIED') ) ;
#118 = CIRCLE ( 'NONE', #249, 0.4921259842519686300 ) ;
#119 = CIRCLE ( 'NONE', #250, 0.4921259842519691800 ) ;
#120 = LINE ( 'NONE', #161, #6 ) ;
#121 = CIRCLE ( 'NONE', #246, 2.763779527559049800 ) ;
#122 = CIRCLE ( 'NONE', #273, 0.4921259842519691800 ) ;
#123 = ORIENTED_EDGE ( 'NONE', *, *, #239, .T. ) ;
#124 = ORIENTED_EDGE ( 'NONE', *, *, #274, .F. ) ;
#125 = ORIENTED_EDGE ( 'NONE', *, *, #264, .F. ) ;
#126 = ORIENTED_EDGE ( 'NONE', *, *, #240, .T. ) ;
#127 = ORIENTED_EDGE ( 'NONE', *, *, #265, .T. ) ;
#128 = ORIENTED_EDGE ( 'NONE', *, *, #241, .F. ) ;
#129 = ORIENTED_EDGE ( 'NONE', *, *, #266, .F. ) ;
#130 = ORIENTED_EDGE ( 'NONE', *, *, #264, .T. ) ;
#131 = VERTEX_POINT ( 'NONE', #184 ) ;
#132 = ORIENTED_EDGE ( 'NONE', *, *, #259, .F. ) ;
#133 = VECTOR ( 'NONE', #277, 39.37007874015748100 ) ;
#134 = VERTEX_POINT ( 'NONE', #13 ) ;
#135 = LINE ( 'NONE', #15, #133 ) ;
#136 = CIRCLE ( 'NONE', #251, 0.5000000000000006700 ) ;
#137 = VERTEX_POINT ( 'NONE', #14 ) ;
#138 = CIRCLE ( 'NONE', #270, 0.5000000000000002200 ) ;
#139 = CIRCLE ( 'NONE', #272, 0.5000000000000002200 ) ;
#140 = CIRCLE ( 'NONE', #258, 0.5000000000000006700 ) ;
#141 = ORIENTED_EDGE ( 'NONE', *, *, #244, .F. ) ;
#142 = ORIENTED_EDGE ( 'NONE', *, *, #267, .T. ) ;
#143 = VERTEX_POINT ( 'NONE', #185 ) ;
#144 = VECTOR ( 'NONE', #160, 39.37007874015748100 ) ;
#145 = CIRCLE ( 'NONE', #255, 0.4921259842519686300 ) ;
#146 = ORIENTED_EDGE ( 'NONE', *, *, #240, .F. ) ;
#147 = LINE ( 'NONE', #156, #144 ) ;
#148 = CYLINDRICAL_SURFACE ( 'NONE', #245, 0.5000000000000006700 ) ;
#149 = SHAPE_DEFINITION_REPRESENTATION ( #4, #198 ) ;
#150 = CARTESIAN_POINT ( 'NONE',  ( 0.0000000000000000000, 3.238939167314457100E-016, -2.685039370078741600 ) ) ;
#151 = DIRECTION ( 'NONE',  ( -0.0000000000000000000, -4.205981503748464600E-015, -1.000000000000000000 ) ) ;
#152 = DIRECTION ( 'NONE',  ( 0.0000000000000000000, 1.000000000000000000, -4.200216290258799300E-015 ) ) ;
#153 = CARTESIAN_POINT ( 'NONE',  ( 0.0000000000000000000, 4.434734166684076000E-016, 0.02669858880831554200 ) ) ;
#154 = DIRECTION ( 'NONE',  ( -0.0000000000000000000, -4.205981503748464600E-015, -1.000000000000000000 ) ) ;
#155 = DIRECTION ( 'NONE',  ( 0.0000000000000000000, 1.000000000000000000, -4.208753315239004100E-015 ) ) ;
#156 = CARTESIAN_POINT ( 'NONE',  ( 6.123233995736774700E-017, -0.5000000000000006700, -0.07874015748031511200 ) ) ;
#157 = CARTESIAN_POINT ( 'NONE',  ( 0.0000000000000000000, 4.434734166684076000E-016, 0.02669858880831554200 ) ) ;
#158 = DIRECTION ( 'NONE',  ( -0.0000000000000000000, -4.205981503748464600E-015, -1.000000000000000000 ) ) ;
#159 = DIRECTION ( 'NONE',  ( 0.0000000000000000000, 1.000000000000000000, -4.208753315239004100E-015 ) ) ;
#160 = DIRECTION ( 'NONE',  ( -0.0000000000000000000, 3.061515884555943100E-016, -1.000000000000000000 ) ) ;
#161 = CARTESIAN_POINT ( 'NONE',  ( 6.026805113914141100E-017, -0.4921259842519681300, 0.03457260455634907800 ) ) ;
#162 = CARTESIAN_POINT ( 'NONE',  ( 0.0000000000000000000, 4.765913812648521500E-016, 0.03457260455634700300 ) ) ;
#163 = DIRECTION ( 'NONE',  ( -0.0000000000000000000, -4.205981503748464600E-015, -1.000000000000000000 ) ) ;
#164 = DIRECTION ( 'NONE',  ( 0.0000000000000000000, 1.000000000000000000, -4.206704429243756400E-015 ) ) ;
#165 = CARTESIAN_POINT ( 'NONE',  ( 0.0000000000000000000, 3.238939167314457100E-016, -2.685039370078741600 ) ) ;
#166 = DIRECTION ( 'NONE',  ( 1.000000000000000000, 1.224646799147353200E-016, 3.749275628560213600E-032 ) ) ;
#167 = DIRECTION ( 'NONE',  ( -1.224646799147353200E-016, 1.000000000000000000, 0.0000000000000000000 ) ) ;
#168 = DIRECTION ( 'NONE',  ( 8.659560562354999400E-017, -0.7071067811865559000, -0.7071067811865391400 ) ) ;
#169 = CARTESIAN_POINT ( 'NONE',  ( 0.0000000000000000000, 9.423978041677931500E-030, -0.07874015748031287800 ) ) ;
#170 = DIRECTION ( 'NONE',  ( -0.0000000000000000000, -4.205981503748464600E-015, -1.000000000000000000 ) ) ;
#171 = DIRECTION ( 'NONE',  ( 0.0000000000000000000, 1.000000000000000000, -4.198030811863867600E-015 ) ) ;
#172 = DIRECTION ( 'NONE',  ( 0.0000000000000000000, -0.7071067811865444600, 0.7071067811865505700 ) ) ;
#173 = CARTESIAN_POINT ( 'NONE',  ( 0.0000000000000000000, 9.423978041677931500E-030, -0.07874015748031287800 ) ) ;
#174 = DIRECTION ( 'NONE',  ( -0.0000000000000000000, -4.205981503748464600E-015, -1.000000000000000000 ) ) ;
#175 = DIRECTION ( 'NONE',  ( 0.0000000000000000000, 1.000000000000000000, -4.198030811863867600E-015 ) ) ;
#176 = CARTESIAN_POINT ( 'NONE',  ( 0.0000000000000000000, -0.5000000000000006700, -0.07086614173227925900 ) ) ;
#177 = DATE_AND_TIME ( #11, #12 ) ;
#178 = COORDINATED_UNIVERSAL_TIME_OFFSET ( 5, 0, .BEHIND. ) ;
#179 = APPROVAL_DATE_TIME ( #177, #299 ) ;
#180 = PERSON_AND_ORGANIZATION ( #117, #91 ) ;
#181 = CARTESIAN_POINT ( 'NONE',  ( 0.0000000000000000000, 0.5000000000000005600, 0.02669858880831343600 ) ) ;
#182 = CARTESIAN_POINT ( 'NONE',  ( 6.075019554825454800E-017, -0.4921259842519681300, 0.03457260455634907800 ) ) ;
#183 = CARTESIAN_POINT ( 'NONE',  ( 6.123233995736774700E-017, -0.5000000000000006700, -0.07086614173227925900 ) ) ;
#184 = CARTESIAN_POINT ( 'NONE',  ( 6.123233995736768500E-017, -0.4999999999999997800, 0.02669858880831764400 ) ) ;
#185 = CARTESIAN_POINT ( 'NONE',  ( 0.0000000000000000000, 0.4921259842519690700, 0.03457260455634493500 ) ) ;
#186 = CARTESIAN_POINT ( 'NONE',  ( 0.0000000000000000000, 3.311796459645411100E-017, -0.07086614173228136800 ) ) ;
#187 = CONICAL_SURFACE ( 'NONE', #263, 0.5000000000000006700, 0.7853981633974482800 ) ;
#188 = FACE_OUTER_BOUND ( 'NONE', #227, .T. ) ;
#189 = SPHERICAL_SURFACE ( 'NONE', #247, 2.763779527559049800 ) ;
#190 = FACE_OUTER_BOUND ( 'NONE', #220, .T. ) ;
#191 = LINE ( 'NONE', #27, #193 ) ;
#192 = VECTOR ( 'NONE', #26, 39.37007874015748900 ) ;
#193 = VECTOR ( 'NONE', #29, 39.37007874015748100 ) ;
#194 = DATE_AND_TIME ( #195, #197 ) ;
#195 = CALENDAR_DATE ( 2014, 22, 4 ) ;
#196 = PERSON_AND_ORGANIZATION ( #117, #91 ) ;
#197 = LOCAL_TIME ( 10, 51, 36.00000000000000000, #178 ) ;
#198 = ADVANCED_BREP_SHAPE_REPRESENTATION ( 'TTN023913-E0W', ( #200, #256 ), #261 ) ;
#199 = UNCERTAINTY_MEASURE_WITH_UNIT (LENGTH_MEASURE( 1.000000000000000100E-005 ), #58, 'distance_accuracy_value', 'NONE');
#200 = MANIFOLD_SOLID_BREP ( 'TTN023925-1-solid1', #206 ) ;
#201 = ORIENTED_EDGE ( 'NONE', *, *, #257, .F. ) ;
#202 = ORIENTED_EDGE ( 'NONE', *, *, #248, .F. ) ;
#203 = ORIENTED_EDGE ( 'NONE', *, *, #259, .T. ) ;
#204 = ORIENTED_EDGE ( 'NONE', *, *, #267, .F. ) ;
#205 = ORIENTED_EDGE ( 'NONE', *, *, #239, .F. ) ;
#206 = CLOSED_SHELL ( 'NONE', ( #279, #281, #280, #286, #287, #283, #284, #285, #282 ) ) ;
#207 = ORIENTED_EDGE ( 'NONE', *, *, #266, .T. ) ;
#208 = ORIENTED_EDGE ( 'NONE', *, *, #257, .T. ) ;
#209 = ORIENTED_EDGE ( 'NONE', *, *, #265, .F. ) ;
#210 = DIRECTION ( 'NONE',  ( -1.000000000000000000, 0.0000000000000000000, 0.0000000000000000000 ) ) ;
#211 = EDGE_LOOP ( 'NONE', ( #130, #127 ) ) ;
#212 = EDGE_LOOP ( 'NONE', ( #129, #126, #123, #141 ) ) ;
#213 = EDGE_LOOP ( 'NONE', ( #228, #237, #233, #224 ) ) ;
#214 = ORIENTED_EDGE ( 'NONE', *, *, #271, .T. ) ;
#215 = VERTEX_POINT ( 'NONE', #183 ) ;
#216 = VERTEX_POINT ( 'NONE', #182 ) ;
#217 = ORIENTED_EDGE ( 'NONE', *, *, #275, .T. ) ;
#218 = ORIENTED_EDGE ( 'NONE', *, *, #244, .T. ) ;
#219 = ORIENTED_EDGE ( 'NONE', *, *, #253, .F. ) ;
#220 = EDGE_LOOP ( 'NONE', ( #132, #142, #146 ) ) ;
#221 = VERTEX_POINT ( 'NONE', #181 ) ;
#222 = VERTEX_POINT ( 'NONE', #16 ) ;
#223 = ORIENTED_EDGE ( 'NONE', *, *, #241, .T. ) ;
#224 = ORIENTED_EDGE ( 'NONE', *, *, #275, .F. ) ;
#225 = EDGE_CURVE ( 'NONE', #226, #215, #140, .T. ) ;
#226 = VERTEX_POINT ( 'NONE', #85 ) ;
#227 = EDGE_LOOP ( 'NONE', ( #204, #203, #201 ) ) ;
#228 = ORIENTED_EDGE ( 'NONE', *, *, #248, .T. ) ;
#229 = EDGE_LOOP ( 'NONE', ( #208, #207, #202, #205 ) ) ;
#230 = ORIENTED_EDGE ( 'NONE', *, *, #274, .T. ) ;
#231 = EDGE_LOOP ( 'NONE', ( #209, #230, #236, #235 ) ) ;
#232 = EDGE_LOOP ( 'NONE', ( #124, #125, #214, #223 ) ) ;
#233 = ORIENTED_EDGE ( 'NONE', *, *, #225, .F. ) ;
#234 = EDGE_LOOP ( 'NONE', ( #219, #218, #217, #128 ) ) ;
#235 = ORIENTED_EDGE ( 'NONE', *, *, #271, .F. ) ;
#236 = ORIENTED_EDGE ( 'NONE', *, *, #225, .T. ) ;
#237 = ORIENTED_EDGE ( 'NONE', *, *, #253, .T. ) ;
#238 = AXIS2_PLACEMENT_3D ( 'NONE', #43, #48, #49 ) ;
#239 = EDGE_CURVE ( 'NONE', #143, #221, #135, .T. ) ;
#240 = EDGE_CURVE ( 'NONE', #216, #143, #145, .T. ) ;
#241 = EDGE_CURVE ( 'NONE', #215, #226, #136, .T. ) ;
#242 = AXIS2_PLACEMENT_3D ( 'NONE', #44, #41, #40 ) ;
#243 = AXIS2_PLACEMENT_3D ( 'NONE', #39, #37, #42 ) ;
#244 = EDGE_CURVE ( 'NONE', #131, #221, #138, .T. ) ;
#245 = AXIS2_PLACEMENT_3D ( 'NONE', #54, #52, #47 ) ;
#246 = AXIS2_PLACEMENT_3D ( 'NONE', #165, #166, #167 ) ;
#247 = AXIS2_PLACEMENT_3D ( 'NONE', #31, #32, #33 ) ;
#248 = EDGE_CURVE ( 'NONE', #221, #131, #139, .T. ) ;
#249 = AXIS2_PLACEMENT_3D ( 'NONE', #162, #163, #164 ) ;
#250 = AXIS2_PLACEMENT_3D ( 'NONE', #173, #174, #175 ) ;
#251 = AXIS2_PLACEMENT_3D ( 'NONE', #186, #151, #152 ) ;
#252 = PRODUCT_DEFINITION ( 'UNKNOWN', '', #300, #3 ) ;
#253 = EDGE_CURVE ( 'NONE', #131, #215, #147, .T. ) ;
#254 = CC_DESIGN_PERSON_AND_ORGANIZATION_ASSIGNMENT ( #92, #67, ( #116 ) ) ;
#255 = AXIS2_PLACEMENT_3D ( 'NONE', #84, #83, #86 ) ;
#256 = AXIS2_PLACEMENT_3D ( 'NONE', #63, #64, #65 ) ;
#257 = EDGE_CURVE ( 'NONE', #143, #216, #118, .T. ) ;
#258 = AXIS2_PLACEMENT_3D ( 'NONE', #87, #88, #278 ) ;
#259 = EDGE_CURVE ( 'NONE', #134, #216, #121, .T. ) ;
#260 = AXIS2_PLACEMENT_3D ( 'NONE', #150, #210, #24 ) ;
#261 =( GEOMETRIC_REPRESENTATION_CONTEXT ( 3 ) GLOBAL_UNCERTAINTY_ASSIGNED_CONTEXT ( ( #199 ) ) GLOBAL_UNIT_ASSIGNED_CONTEXT ( ( #58, #59, #60 ) ) REPRESENTATION_CONTEXT ( 'NONE', 'WORKASPACE' ) );
#262 = AXIS2_PLACEMENT_3D ( 'NONE', #38, #36, #34 ) ;
#263 = AXIS2_PLACEMENT_3D ( 'NONE', #35, #30, #28 ) ;
#264 = EDGE_CURVE ( 'NONE', #222, #137, #122, .T. ) ;
#265 = EDGE_CURVE ( 'NONE', #137, #222, #119, .T. ) ;
#266 = EDGE_CURVE ( 'NONE', #216, #131, #120, .T. ) ;
#267 = EDGE_CURVE ( 'NONE', #134, #143, #8, .T. ) ;
#268 = AXIS2_PLACEMENT_3D ( 'NONE', #51, #50, #46 ) ;
#269 = AXIS2_PLACEMENT_3D ( 'NONE', #56, #55, #53 ) ;
#270 = AXIS2_PLACEMENT_3D ( 'NONE', #153, #154, #155 ) ;
#271 = EDGE_CURVE ( 'NONE', #222, #215, #7, .T. ) ;
#272 = AXIS2_PLACEMENT_3D ( 'NONE', #157, #158, #159 ) ;
#273 = AXIS2_PLACEMENT_3D ( 'NONE', #169, #170, #171 ) ;
#274 = EDGE_CURVE ( 'NONE', #137, #226, #9, .T. ) ;
#275 = EDGE_CURVE ( 'NONE', #221, #226, #191, .T. ) ;
#276 = LENGTH_MEASURE_WITH_UNIT ( LENGTH_MEASURE( 0.02539999999999999900 ), #57 );
#277 = DIRECTION ( 'NONE',  ( 0.0000000000000000000, 0.7071067811865499000, -0.7071067811865451300 ) ) ;
#278 = DIRECTION ( 'NONE',  ( 0.0000000000000000000, 1.000000000000000000, -4.200216290258799300E-015 ) ) ;
#279 = ADVANCED_FACE ( 'NONE', ( #188 ), #189, .T. ) ;
#280 = ADVANCED_FACE ( 'NONE', ( #21 ), #187, .T. ) ;
#281 = ADVANCED_FACE ( 'NONE', ( #22 ), #115, .T. ) ;
#282 = ADVANCED_FACE ( 'NONE', ( #190 ), #23, .T. ) ;
#283 = ADVANCED_FACE ( 'NONE', ( #114 ), #2, .T. ) ;
#284 = ADVANCED_FACE ( 'NONE', ( #19 ), #45, .T. ) ;
#285 = ADVANCED_FACE ( 'NONE', ( #113 ), #18, .T. ) ;
#286 = ADVANCED_FACE ( 'NONE', ( #1 ), #148, .T. ) ;
#287 = ADVANCED_FACE ( 'NONE', ( #20 ), #17, .T. ) ;
#288 = DIMENSIONAL_EXPONENTS ( 1.000000000000000000, 0.0000000000000000000, 0.0000000000000000000, 0.0000000000000000000, 0.0000000000000000000, 0.0000000000000000000, 0.0000000000000000000 ) ;
#289 = CC_DESIGN_PERSON_AND_ORGANIZATION_ASSIGNMENT ( #101, #79, ( #304 ) ) ;
#290 = APPROVAL ( #81, 'UNSPECIFIED' ) ;
#291 = CC_DESIGN_APPROVAL ( #299, ( #252 ) ) ;
#292 = CC_DESIGN_PERSON_AND_ORGANIZATION_ASSIGNMENT ( #103, #76, ( #300 ) ) ;
#293 = CC_DESIGN_DATE_AND_TIME_ASSIGNMENT ( #194, #73, ( #252 ) ) ;
#294 = CC_DESIGN_SECURITY_CLASSIFICATION ( #304, ( #300 ) ) ;
#295 = PRODUCT_RELATED_PRODUCT_CATEGORY ( 'detail', '', ( #116 ) ) ;
#296 = CC_DESIGN_APPROVAL ( #302, ( #300 ) ) ;
#297 = CC_DESIGN_APPROVAL ( #290, ( #304 ) ) ;
#298 = CC_DESIGN_PERSON_AND_ORGANIZATION_ASSIGNMENT ( #106, #77, ( #300 ) ) ;
#299 = APPROVAL ( #70, 'UNSPECIFIED' ) ;
#300 = PRODUCT_DEFINITION_FORMATION_WITH_SPECIFIED_SOURCE ( 'ANY', '', #116, .NOT_KNOWN. ) ;
#301 = CC_DESIGN_PERSON_AND_ORGANIZATION_ASSIGNMENT ( #180, #72, ( #252 ) ) ;
#302 = APPROVAL ( #74, 'UNSPECIFIED' ) ;
#303 = CC_DESIGN_DATE_AND_TIME_ASSIGNMENT ( #105, #80, ( #304 ) ) ;
#304 = SECURITY_CLASSIFICATION ( '', '', #78 ) ;
ENDSEC;
END-ISO-10303-21;
