ISO-10303-21;
HEADER;
FILE_DESCRIPTION (( 'STEP AP203' ),
    '1' );
FILE_NAME ('47193_84461.step',
    '2018-01-22T13:13:04',
    ( '' ),
    ( '' ),
    'SwSTEP 2.0',
    'SolidWorks 2016',
    '' );
FILE_SCHEMA (( 'CONFIG_CONTROL_DESIGN' ));
ENDSEC;

DATA;
#1 = DATE_AND_TIME ( #90, #70 ) ;
#2 = AXIS2_PLACEMENT_3D ( 'NONE', #144, #58, #156 ) ;
#3 = EDGE_CURVE ( 'NONE', #86, #39, #40, .T. ) ;
#4 = COORDINATED_UNIVERSAL_TIME_OFFSET ( 5, 0, .BEHIND. ) ;
#5 = PRODUCT_DEFINITION_FORMATION_WITH_SPECIFIED_SOURCE ( 'ANY', '', #118, .NOT_KNOWN. ) ;
#6 = ADVANCED_FACE ( 'NONE', ( #119 ), #77, .T. ) ;
#7 = ORIENTED_EDGE ( 'NONE', *, *, #18, .T. ) ;
#8 = DIRECTION ( 'NONE',  ( 1.000000000000000000, 0.0000000000000000000, 0.0000000000000000000 ) ) ;
#9 = EDGE_LOOP ( 'NONE', ( #55, #7 ) ) ;
#10 = APPLICATION_CONTEXT ( 'configuration controlled 3d designs of mechanical parts and assemblies' ) ;
#11 = PERSON_AND_ORGANIZATION_ROLE ( 'creator' ) ;
#12 = APPROVAL_DATE_TIME ( #81, #72 ) ;
#13 = DIRECTION ( 'NONE',  ( 0.0000000000000000000, 0.0000000000000000000, 1.000000000000000000 ) ) ;
#14 = EDGE_CURVE ( 'NONE', #137, #86, #28, .T. ) ;
#15 = CARTESIAN_POINT ( 'NONE',  ( 0.0000000000000000000, 0.0000000000000000000, 0.0000000000000000000 ) ) ;
#16 = PERSON_AND_ORGANIZATION ( #135, #45 ) ;
#17 = ADVANCED_FACE ( 'NONE', ( #143 ), #128, .T. ) ;
#18 = EDGE_CURVE ( 'NONE', #79, #39, #83, .T. ) ;
#19 = APPROVAL ( #172, 'UNSPECIFIED' ) ;
#20 = EDGE_LOOP ( 'NONE', ( #116, #134, #161, #107 ) ) ;
#21 = DIRECTION ( 'NONE',  ( 1.000000000000000000, 0.0000000000000000000, 0.0000000000000000000 ) ) ;
#22 = SECURITY_CLASSIFICATION_LEVEL ( 'unclassified' ) ;
#23 = EDGE_LOOP ( 'NONE', ( #89, #95, #42, #130 ) ) ;
#24 = CARTESIAN_POINT ( 'NONE',  ( 0.0000000000000000000, 0.0000000000000000000, 0.0000000000000000000 ) ) ;
#25 = CALENDAR_DATE ( 2018, 22, 1 ) ;
#26 = PERSON_AND_ORGANIZATION ( #135, #45 ) ;
#27 = DIRECTION ( 'NONE',  ( 1.000000000000000000, 0.0000000000000000000, -0.0000000000000000000 ) ) ;
#28 = CIRCLE ( 'NONE', #2, 6.249999999999998200 ) ;
#29 = CARTESIAN_POINT ( 'NONE',  ( -6.249999999999998200, 7.654042494670955600E-016, -1.500000000000000000 ) ) ;
#30 = PERSON_AND_ORGANIZATION ( #135, #45 ) ;
#31 = PRODUCT_DEFINITION_SHAPE ( 'NONE', 'NONE',  #80 ) ;
#32 = EDGE_CURVE ( 'NONE', #137, #79, #121, .T. ) ;
#33 = CALENDAR_DATE ( 2018, 22, 1 ) ;
#34 = PERSON_AND_ORGANIZATION_ROLE ( 'design_owner' ) ;
#35 = DATE_TIME_ROLE ( 'classification_date' ) ;
#36 = CC_DESIGN_DATE_AND_TIME_ASSIGNMENT ( #88, #35, ( #43 ) ) ;
#37 = DIRECTION ( 'NONE',  ( 0.0000000000000000000, 0.0000000000000000000, 1.000000000000000000 ) ) ;
#38 = COORDINATED_UNIVERSAL_TIME_OFFSET ( 5, 0, .BEHIND. ) ;
#39 = VERTEX_POINT ( 'NONE', #153 ) ;
#40 = LINE ( 'NONE', #59, #117 ) ;
#41 = CARTESIAN_POINT ( 'NONE',  ( 0.0000000000000000000, 0.0000000000000000000, -1.500000000000000000 ) ) ;
#42 = ORIENTED_EDGE ( 'NONE', *, *, #3, .T. ) ;
#43 = SECURITY_CLASSIFICATION ( '', '', #22 ) ;
#44 =( GEOMETRIC_REPRESENTATION_CONTEXT ( 3 ) GLOBAL_UNCERTAINTY_ASSIGNED_CONTEXT ( ( #151 ) ) GLOBAL_UNIT_ASSIGNED_CONTEXT ( ( #52, #120, #131 ) ) REPRESENTATION_CONTEXT ( 'NONE', 'WORKASPACE' ) );
#45 = ORGANIZATION ( 'UNSPECIFIED', 'UNSPECIFIED', '' ) ;
#46 = APPLICATION_PROTOCOL_DEFINITION ( 'international standard', 'config_control_design', 1994, #125 ) ;
#47 = APPROVAL_ROLE ( '' ) ;
#48 = DIRECTION ( 'NONE',  ( 1.000000000000000000, 0.0000000000000000000, 0.0000000000000000000 ) ) ;
#49 = DIRECTION ( 'NONE',  ( 0.0000000000000000000, 0.0000000000000000000, 1.000000000000000000 ) ) ;
#50 = DIRECTION ( 'NONE',  ( 1.000000000000000000, 0.0000000000000000000, 0.0000000000000000000 ) ) ;
#51 = APPROVAL_DATE_TIME ( #1, #103 ) ;
#52 =( LENGTH_UNIT ( ) NAMED_UNIT ( * ) SI_UNIT ( .MILLI., .METRE. ) );
#53 = CC_DESIGN_APPROVAL ( #72, ( #80 ) ) ;
#54 = APPROVAL_ROLE ( '' ) ;
#55 = ORIENTED_EDGE ( 'NONE', *, *, #162, .T. ) ;
#56 = CALENDAR_DATE ( 2018, 22, 1 ) ;
#57 = AXIS2_PLACEMENT_3D ( 'NONE', #41, #150, #8 ) ;
#58 = DIRECTION ( 'NONE',  ( 0.0000000000000000000, 0.0000000000000000000, 1.000000000000000000 ) ) ;
#59 = CARTESIAN_POINT ( 'NONE',  ( 6.249999999999998200, 0.0000000000000000000, -1.500000000000000000 ) ) ;
#60 = CARTESIAN_POINT ( 'NONE',  ( 0.0000000000000000000, 0.0000000000000000000, -1.500000000000000000 ) ) ;
#61 = FACE_OUTER_BOUND ( 'NONE', #23, .T. ) ;
#62 = CC_DESIGN_PERSON_AND_ORGANIZATION_ASSIGNMENT ( #111, #34, ( #118 ) ) ;
#63 = DATE_AND_TIME ( #56, #139 ) ;
#64 = COORDINATED_UNIVERSAL_TIME_OFFSET ( 5, 0, .BEHIND. ) ;
#65 = ADVANCED_FACE ( 'NONE', ( #169 ), #129, .F. ) ;
#66 = MANIFOLD_SOLID_BREP ( 'Boss-Extrude1', #167 ) ;
#67 = AXIS2_PLACEMENT_3D ( 'NONE', #15, #96, #21 ) ;
#68 = CYLINDRICAL_SURFACE ( 'NONE', #57, 6.249999999999998200 ) ;
#69 = AXIS2_PLACEMENT_3D ( 'NONE', #166, #102, #50 ) ;
#70 = LOCAL_TIME ( 8, 13, 4.000000000000000000, #127 ) ;
#71 = DIRECTION ( 'NONE',  ( 1.000000000000000000, 0.0000000000000000000, 0.0000000000000000000 ) ) ;
#72 = APPROVAL ( #142, 'UNSPECIFIED' ) ;
#73 = DATE_TIME_ROLE ( 'creation_date' ) ;
#74 = PERSON_AND_ORGANIZATION ( #135, #45 ) ;
#75 = CARTESIAN_POINT ( 'NONE',  ( 6.249999999999998200, 0.0000000000000000000, -1.500000000000000000 ) ) ;
#76 = DIRECTION ( 'NONE',  ( 0.0000000000000000000, 0.0000000000000000000, 1.000000000000000000 ) ) ;
#77 = CYLINDRICAL_SURFACE ( 'NONE', #87, 6.249999999999998200 ) ;
#78 = DIRECTION ( 'NONE',  ( 0.0000000000000000000, 0.0000000000000000000, 1.000000000000000000 ) ) ;
#79 = VERTEX_POINT ( 'NONE', #141 ) ;
#80 = PRODUCT_DEFINITION ( 'UNKNOWN', '', #5, #155 ) ;
#81 = DATE_AND_TIME ( #25, #138 ) ;
#82 = CC_DESIGN_PERSON_AND_ORGANIZATION_ASSIGNMENT ( #173, #154, ( #80 ) ) ;
#83 = CIRCLE ( 'NONE', #106, 6.249999999999998200 ) ;
#84 = CIRCLE ( 'NONE', #69, 6.249999999999998200 ) ;
#85 = APPROVAL_ROLE ( '' ) ;
#86 = VERTEX_POINT ( 'NONE', #75 ) ;
#87 = AXIS2_PLACEMENT_3D ( 'NONE', #146, #78, #48 ) ;
#88 = DATE_AND_TIME ( #33, #165 ) ;
#89 = ORIENTED_EDGE ( 'NONE', *, *, #32, .F. ) ;
#90 = CALENDAR_DATE ( 2018, 22, 1 ) ;
#91 = EDGE_LOOP ( 'NONE', ( #147, #159 ) ) ;
#92 = COORDINATED_UNIVERSAL_TIME_OFFSET ( 5, 0, .BEHIND. ) ;
#93 = AXIS2_PLACEMENT_3D ( 'NONE', #160, #133, #27 ) ;
#94 = CC_DESIGN_PERSON_AND_ORGANIZATION_ASSIGNMENT ( #26, #112, ( #43 ) ) ;
#95 = ORIENTED_EDGE ( 'NONE', *, *, #14, .T. ) ;
#96 = DIRECTION ( 'NONE',  ( 0.0000000000000000000, 0.0000000000000000000, 1.000000000000000000 ) ) ;
#97 = CC_DESIGN_APPROVAL ( #19, ( #5 ) ) ;
#98 = DIRECTION ( 'NONE',  ( 1.000000000000000000, 0.0000000000000000000, 0.0000000000000000000 ) ) ;
#99 = PERSON_AND_ORGANIZATION_ROLE ( 'design_supplier' ) ;
#100 = CALENDAR_DATE ( 2018, 22, 1 ) ;
#101 = AXIS2_PLACEMENT_3D ( 'NONE', #60, #49, #98 ) ;
#102 = DIRECTION ( 'NONE',  ( 0.0000000000000000000, 0.0000000000000000000, 1.000000000000000000 ) ) ;
#103 = APPROVAL ( #126, 'UNSPECIFIED' ) ;
#104 = APPROVAL_PERSON_ORGANIZATION ( #30, #72, #54 ) ;
#105 = VECTOR ( 'NONE', #13, 1000.000000000000000 ) ;
#106 = AXIS2_PLACEMENT_3D ( 'NONE', #24, #37, #71 ) ;
#107 = ORIENTED_EDGE ( 'NONE', *, *, #3, .F. ) ;
#108 = APPROVAL_PERSON_ORGANIZATION ( #114, #19, #85 ) ;
#109 = CIRCLE ( 'NONE', #101, 6.249999999999998200 ) ;
#110 = MECHANICAL_CONTEXT ( 'NONE', #10, 'mechanical' ) ;
#111 = PERSON_AND_ORGANIZATION ( #135, #45 ) ;
#112 = PERSON_AND_ORGANIZATION_ROLE ( 'classification_officer' ) ;
#113 = CC_DESIGN_PERSON_AND_ORGANIZATION_ASSIGNMENT ( #74, #99, ( #5 ) ) ;
#114 = PERSON_AND_ORGANIZATION ( #135, #45 ) ;
#115 = CARTESIAN_POINT ( 'NONE',  ( -6.249999999999998200, 7.654042494670955600E-016, -1.500000000000000000 ) ) ;
#116 = ORIENTED_EDGE ( 'NONE', *, *, #145, .T. ) ;
#117 = VECTOR ( 'NONE', #148, 1000.000000000000000 ) ;
#118 = PRODUCT ( '47193_84461', '47193_84461', '', ( #110 ) ) ;
#119 = FACE_OUTER_BOUND ( 'NONE', #20, .T. ) ;
#120 =( NAMED_UNIT ( * ) PLANE_ANGLE_UNIT ( ) SI_UNIT ( $, .RADIAN. ) );
#121 = LINE ( 'NONE', #115, #105 ) ;
#122 = ADVANCED_FACE ( 'NONE', ( #61 ), #68, .T. ) ;
#123 = AXIS2_PLACEMENT_3D ( 'NONE', #157, #76, #175 ) ;
#124 = APPROVAL_DATE_TIME ( #63, #19 ) ;
#125 = APPLICATION_CONTEXT ( 'configuration controlled 3d designs of mechanical parts and assemblies' ) ;
#126 = APPROVAL_STATUS ( 'not_yet_approved' ) ;
#127 = COORDINATED_UNIVERSAL_TIME_OFFSET ( 5, 0, .BEHIND. ) ;
#128 = PLANE ( 'NONE',  #123 ) ;
#129 = PLANE ( 'NONE',  #93 ) ;
#130 = ORIENTED_EDGE ( 'NONE', *, *, #18, .F. ) ;
#131 =( NAMED_UNIT ( * ) SI_UNIT ( $, .STERADIAN. ) SOLID_ANGLE_UNIT ( ) );
#132 = SHAPE_DEFINITION_REPRESENTATION ( #31, #171 ) ;
#133 = DIRECTION ( 'NONE',  ( 0.0000000000000000000, 0.0000000000000000000, 1.000000000000000000 ) ) ;
#134 = ORIENTED_EDGE ( 'NONE', *, *, #32, .T. ) ;
#135 = PERSON ( 'UNSPECIFIED', 'UNSPECIFIED', 'UNSPECIFIED', ('UNSPECIFIED'), ('UNSPECIFIED'), ('UNSPECIFIED') ) ;
#136 = LOCAL_TIME ( 8, 13, 4.000000000000000000, #4 ) ;
#137 = VERTEX_POINT ( 'NONE', #29 ) ;
#138 = LOCAL_TIME ( 8, 13, 4.000000000000000000, #64 ) ;
#139 = LOCAL_TIME ( 8, 13, 4.000000000000000000, #92 ) ;
#140 = PRODUCT_RELATED_PRODUCT_CATEGORY ( 'detail', '', ( #118 ) ) ;
#141 = CARTESIAN_POINT ( 'NONE',  ( -6.249999999999998200, 7.654042494670955600E-016, 0.0000000000000000000 ) ) ;
#142 = APPROVAL_STATUS ( 'not_yet_approved' ) ;
#143 = FACE_OUTER_BOUND ( 'NONE', #9, .T. ) ;
#144 = CARTESIAN_POINT ( 'NONE',  ( 0.0000000000000000000, 0.0000000000000000000, -1.500000000000000000 ) ) ;
#145 = EDGE_CURVE ( 'NONE', #86, #137, #109, .T. ) ;
#146 = CARTESIAN_POINT ( 'NONE',  ( 0.0000000000000000000, 0.0000000000000000000, -1.500000000000000000 ) ) ;
#147 = ORIENTED_EDGE ( 'NONE', *, *, #145, .F. ) ;
#148 = DIRECTION ( 'NONE',  ( 0.0000000000000000000, 0.0000000000000000000, 1.000000000000000000 ) ) ;
#149 = APPROVAL_PERSON_ORGANIZATION ( #16, #103, #47 ) ;
#150 = DIRECTION ( 'NONE',  ( 0.0000000000000000000, 0.0000000000000000000, 1.000000000000000000 ) ) ;
#151 = UNCERTAINTY_MEASURE_WITH_UNIT (LENGTH_MEASURE( 1.000000000000000100E-005 ), #52, 'distance_accuracy_value', 'NONE');
#152 = PERSON_AND_ORGANIZATION ( #135, #45 ) ;
#153 = CARTESIAN_POINT ( 'NONE',  ( 6.249999999999998200, 0.0000000000000000000, 0.0000000000000000000 ) ) ;
#154 = PERSON_AND_ORGANIZATION_ROLE ( 'creator' ) ;
#155 = DESIGN_CONTEXT ( 'detailed design', #125, 'design' ) ;
#156 = DIRECTION ( 'NONE',  ( 1.000000000000000000, 0.0000000000000000000, 0.0000000000000000000 ) ) ;
#157 = CARTESIAN_POINT ( 'NONE',  ( 0.0000000000000000000, 0.0000000000000000000, 0.0000000000000000000 ) ) ;
#158 = CC_DESIGN_SECURITY_CLASSIFICATION ( #43, ( #5 ) ) ;
#159 = ORIENTED_EDGE ( 'NONE', *, *, #14, .F. ) ;
#160 = CARTESIAN_POINT ( 'NONE',  ( 0.0000000000000000000, 0.0000000000000000000, -1.500000000000000000 ) ) ;
#161 = ORIENTED_EDGE ( 'NONE', *, *, #162, .F. ) ;
#162 = EDGE_CURVE ( 'NONE', #39, #79, #84, .T. ) ;
#163 = DATE_AND_TIME ( #100, #136 ) ;
#164 = CC_DESIGN_DATE_AND_TIME_ASSIGNMENT ( #163, #73, ( #80 ) ) ;
#165 = LOCAL_TIME ( 8, 13, 4.000000000000000000, #38 ) ;
#166 = CARTESIAN_POINT ( 'NONE',  ( 0.0000000000000000000, 0.0000000000000000000, 0.0000000000000000000 ) ) ;
#167 = CLOSED_SHELL ( 'NONE', ( #6, #122, #65, #17 ) ) ;
#168 = CC_DESIGN_PERSON_AND_ORGANIZATION_ASSIGNMENT ( #152, #11, ( #5 ) ) ;
#169 = FACE_OUTER_BOUND ( 'NONE', #91, .T. ) ;
#170 = APPLICATION_PROTOCOL_DEFINITION ( 'international standard', 'config_control_design', 1994, #10 ) ;
#171 = ADVANCED_BREP_SHAPE_REPRESENTATION ( '47193_84461', ( #66, #67 ), #44 ) ;
#172 = APPROVAL_STATUS ( 'not_yet_approved' ) ;
#173 = PERSON_AND_ORGANIZATION ( #135, #45 ) ;
#174 = CC_DESIGN_APPROVAL ( #103, ( #43 ) ) ;
#175 = DIRECTION ( 'NONE',  ( 1.000000000000000000, 0.0000000000000000000, -0.0000000000000000000 ) ) ;
ENDSEC;
END-ISO-10303-21;
