ISO-10303-21;
HEADER;
FILE_DESCRIPTION (( 'STEP AP203' ),
    '1' );
FILE_NAME ('Web Model 43636_20971.step',
    '2022-03-16T15:38:54',
    ( '' ),
    ( '' ),
    'SwSTEP 2.0',
    'SolidWorks 2021',
    '' );
FILE_SCHEMA (( 'CONFIG_CONTROL_DESIGN' ));
ENDSEC;

DATA;
#1 = DIRECTION ( 'NONE',  ( -1.000000000000000000, 0.000000000000000000, 0.000000000000000000 ) ) ;
#2 = EDGE_LOOP ( 'NONE', ( #33, #112 ) ) ;
#3 = AXIS2_PLACEMENT_3D ( 'NONE', #166, #31, #86 ) ;
#4 = ORIENTED_EDGE ( 'NONE', *, *, #124, .T. ) ;
#5 = ORIENTED_EDGE ( 'NONE', *, *, #106, .F. ) ;
#6 = APPROVAL ( #79, 'UNSPECIFIED' ) ;
#7 = APPLICATION_PROTOCOL_DEFINITION ( 'international standard', 'config_control_design', 1994, #138 ) ;
#8 =( GEOMETRIC_REPRESENTATION_CONTEXT ( 3 ) GLOBAL_UNCERTAINTY_ASSIGNED_CONTEXT ( ( #13 ) ) GLOBAL_UNIT_ASSIGNED_CONTEXT ( ( #103, #159, #52 ) ) REPRESENTATION_CONTEXT ( 'NONE', 'WORKASPACE' ) );
#9 = PERSON_AND_ORGANIZATION ( #25, #54 ) ;
#10 = CC_DESIGN_PERSON_AND_ORGANIZATION_ASSIGNMENT ( #171, #145, ( #16 ) ) ;
#11 = DATE_TIME_ROLE ( 'creation_date' ) ;
#12 = SHAPE_DEFINITION_REPRESENTATION ( #14, #162 ) ;
#13 = UNCERTAINTY_MEASURE_WITH_UNIT (LENGTH_MEASURE( 1.000000000000000082E-05 ), #103, 'distance_accuracy_value', 'NONE');
#14 = PRODUCT_DEFINITION_SHAPE ( 'NONE', 'NONE',  #131 ) ;
#15 = APPROVAL_ROLE ( '' ) ;
#16 = PRODUCT_DEFINITION_FORMATION_WITH_SPECIFIED_SOURCE ( 'ANY', '', #67, .NOT_KNOWN. ) ;
#17 = EDGE_CURVE ( 'NONE', #98, #71, #148, .T. ) ;
#18 = DIRECTION ( 'NONE',  ( 1.000000000000000000, 0.000000000000000000, -0.000000000000000000 ) ) ;
#19 = DIRECTION ( 'NONE',  ( 0.000000000000000000, 0.000000000000000000, 1.000000000000000000 ) ) ;
#20 = LOCAL_TIME ( 11, 38, 54.00000000000000000, #40 ) ;
#21 = ADVANCED_FACE ( 'NONE', ( #73 ), #44, .T. ) ;
#22 = CARTESIAN_POINT ( 'NONE',  ( 0.000000000000000000, 0.000000000000000000, 1.000000000000000000 ) ) ;
#23 = CARTESIAN_POINT ( 'NONE',  ( -12.69999999999999929, 0.000000000000000000, 1.000000000000000000 ) ) ;
#24 = PERSON_AND_ORGANIZATION ( #25, #54 ) ;
#25 = PERSON ( 'UNSPECIFIED', 'UNSPECIFIED', 'UNSPECIFIED', ('UNSPECIFIED'), ('UNSPECIFIED'), ('UNSPECIFIED') ) ;
#26 = PERSON_AND_ORGANIZATION ( #25, #54 ) ;
#27 = COORDINATED_UNIVERSAL_TIME_OFFSET ( 5, 0, .BEHIND. ) ;
#28 = PERSON_AND_ORGANIZATION_ROLE ( 'classification_officer' ) ;
#29 = PLANE ( 'NONE',  #3 ) ;
#30 = AXIS2_PLACEMENT_3D ( 'NONE', #153, #167, #1 ) ;
#31 = DIRECTION ( 'NONE',  ( 0.000000000000000000, 0.000000000000000000, 1.000000000000000000 ) ) ;
#32 = CARTESIAN_POINT ( 'NONE',  ( -12.69999999999999929, 0.000000000000000000, 0.000000000000000000 ) ) ;
#33 = ORIENTED_EDGE ( 'NONE', *, *, #151, .T. ) ;
#34 = VERTEX_POINT ( 'NONE', #60 ) ;
#35 = DIRECTION ( 'NONE',  ( 1.000000000000000000, 0.000000000000000000, 0.000000000000000000 ) ) ;
#36 = APPROVAL_ROLE ( '' ) ;
#37 = DATE_AND_TIME ( #76, #165 ) ;
#38 = CARTESIAN_POINT ( 'NONE',  ( 0.000000000000000000, 0.000000000000000000, 0.000000000000000000 ) ) ;
#39 = CC_DESIGN_DATE_AND_TIME_ASSIGNMENT ( #65, #11, ( #131 ) ) ;
#40 = COORDINATED_UNIVERSAL_TIME_OFFSET ( 5, 0, .BEHIND. ) ;
#41 = EDGE_LOOP ( 'NONE', ( #122, #125, #123, #72 ) ) ;
#42 = DIRECTION ( 'NONE',  ( -1.000000000000000000, 0.000000000000000000, 0.000000000000000000 ) ) ;
#43 = ADVANCED_FACE ( 'NONE', ( #110 ), #175, .T. ) ;
#44 = CYLINDRICAL_SURFACE ( 'NONE', #30, 12.69999999999999929 ) ;
#45 = AXIS2_PLACEMENT_3D ( 'NONE', #87, #137, #42 ) ;
#46 = LINE ( 'NONE', #129, #158 ) ;
#47 = APPROVAL ( #55, 'UNSPECIFIED' ) ;
#48 = DIRECTION ( 'NONE',  ( -0.000000000000000000, -0.000000000000000000, -1.000000000000000000 ) ) ;
#49 = DIRECTION ( 'NONE',  ( 0.000000000000000000, 0.000000000000000000, 1.000000000000000000 ) ) ;
#50 = CIRCLE ( 'NONE', #118, 12.69999999999999929 ) ;
#51 = DIRECTION ( 'NONE',  ( 1.000000000000000000, 0.000000000000000000, 0.000000000000000000 ) ) ;
#52 =( NAMED_UNIT ( * ) SI_UNIT ( $, .STERADIAN. ) SOLID_ANGLE_UNIT ( ) );
#53 = LOCAL_TIME ( 11, 38, 54.00000000000000000, #83 ) ;
#54 = ORGANIZATION ( 'UNSPECIFIED', 'UNSPECIFIED', '' ) ;
#55 = APPROVAL_STATUS ( 'not_yet_approved' ) ;
#56 = DATE_TIME_ROLE ( 'classification_date' ) ;
#57 = FACE_OUTER_BOUND ( 'NONE', #61, .T. ) ;
#58 = ORIENTED_EDGE ( 'NONE', *, *, #151, .F. ) ;
#59 = VECTOR ( 'NONE', #48, 1000.000000000000000 ) ;
#60 = CARTESIAN_POINT ( 'NONE',  ( 12.69999999999999929, 1.555301434917138433E-15, 1.000000000000000000 ) ) ;
#61 = EDGE_LOOP ( 'NONE', ( #154, #5 ) ) ;
#62 = DIRECTION ( 'NONE',  ( 1.000000000000000000, 0.000000000000000000, 0.000000000000000000 ) ) ;
#63 = DATE_AND_TIME ( #130, #81 ) ;
#64 = DIRECTION ( 'NONE',  ( 1.000000000000000000, 0.000000000000000000, 0.000000000000000000 ) ) ;
#65 = DATE_AND_TIME ( #126, #172 ) ;
#66 = SECURITY_CLASSIFICATION_LEVEL ( 'unclassified' ) ;
#67 = PRODUCT ( 'Web Model 43636_20971', 'Web Model 43636_20971', '', ( #93 ) ) ;
#68 = APPROVAL_PERSON_ORGANIZATION ( #146, #100, #36 ) ;
#69 = APPROVAL_PERSON_ORGANIZATION ( #80, #6, #173 ) ;
#70 = CC_DESIGN_PERSON_AND_ORGANIZATION_ASSIGNMENT ( #24, #104, ( #131 ) ) ;
#71 = VERTEX_POINT ( 'NONE', #120 ) ;
#72 = ORIENTED_EDGE ( 'NONE', *, *, #124, .F. ) ;
#73 = FACE_OUTER_BOUND ( 'NONE', #99, .T. ) ;
#74 = ORIENTED_EDGE ( 'NONE', *, *, #163, .F. ) ;
#75 = CC_DESIGN_DATE_AND_TIME_ASSIGNMENT ( #133, #56, ( #127 ) ) ;
#76 = CALENDAR_DATE ( 2022, 16, 3 ) ;
#77 = ADVANCED_FACE ( 'NONE', ( #57 ), #29, .F. ) ;
#78 = DIRECTION ( 'NONE',  ( 0.000000000000000000, 0.000000000000000000, 1.000000000000000000 ) ) ;
#79 = APPROVAL_STATUS ( 'not_yet_approved' ) ;
#80 = PERSON_AND_ORGANIZATION ( #25, #54 ) ;
#81 = LOCAL_TIME ( 11, 38, 54.00000000000000000, #115 ) ;
#82 = PERSON_AND_ORGANIZATION ( #25, #54 ) ;
#83 = COORDINATED_UNIVERSAL_TIME_OFFSET ( 5, 0, .BEHIND. ) ;
#84 = DATE_AND_TIME ( #105, #20 ) ;
#85 = APPROVAL_PERSON_ORGANIZATION ( #82, #47, #15 ) ;
#86 = DIRECTION ( 'NONE',  ( 1.000000000000000000, 0.000000000000000000, -0.000000000000000000 ) ) ;
#87 = CARTESIAN_POINT ( 'NONE',  ( 0.000000000000000000, 0.000000000000000000, 1.000000000000000000 ) ) ;
#88 = DIRECTION ( 'NONE',  ( 0.000000000000000000, 0.000000000000000000, 1.000000000000000000 ) ) ;
#89 = CARTESIAN_POINT ( 'NONE',  ( 0.000000000000000000, 0.000000000000000000, 1.000000000000000000 ) ) ;
#90 = ORIENTED_EDGE ( 'NONE', *, *, #17, .T. ) ;
#91 = CARTESIAN_POINT ( 'NONE',  ( 0.000000000000000000, 0.000000000000000000, 1.000000000000000000 ) ) ;
#92 = CC_DESIGN_APPROVAL ( #100, ( #131 ) ) ;
#93 = MECHANICAL_CONTEXT ( 'NONE', #138, 'mechanical' ) ;
#94 = AXIS2_PLACEMENT_3D ( 'NONE', #121, #19, #152 ) ;
#95 = PERSON_AND_ORGANIZATION_ROLE ( 'design_supplier' ) ;
#96 = DESIGN_CONTEXT ( 'detailed design', #111, 'design' ) ;
#97 = ADVANCED_FACE ( 'NONE', ( #108 ), #164, .T. ) ;
#98 = VERTEX_POINT ( 'NONE', #32 ) ;
#99 = EDGE_LOOP ( 'NONE', ( #74, #58, #4, #90 ) ) ;
#100 = APPROVAL ( #170, 'UNSPECIFIED' ) ;
#101 = DIRECTION ( 'NONE',  ( -0.000000000000000000, -0.000000000000000000, -1.000000000000000000 ) ) ;
#102 = PRODUCT_RELATED_PRODUCT_CATEGORY ( 'detail', '', ( #67 ) ) ;
#103 =( LENGTH_UNIT ( ) NAMED_UNIT ( * ) SI_UNIT ( .MILLI., .METRE. ) );
#104 = PERSON_AND_ORGANIZATION_ROLE ( 'creator' ) ;
#105 = CALENDAR_DATE ( 2022, 16, 3 ) ;
#106 = EDGE_CURVE ( 'NONE', #71, #98, #119, .T. ) ;
#107 = AXIS2_PLACEMENT_3D ( 'NONE', #22, #49, #51 ) ;
#108 = FACE_OUTER_BOUND ( 'NONE', #41, .T. ) ;
#109 = CC_DESIGN_APPROVAL ( #47, ( #127 ) ) ;
#110 = FACE_OUTER_BOUND ( 'NONE', #2, .T. ) ;
#111 = APPLICATION_CONTEXT ( 'configuration controlled 3d designs of mechanical parts and assemblies' ) ;
#112 = ORIENTED_EDGE ( 'NONE', *, *, #147, .T. ) ;
#113 = DIRECTION ( 'NONE',  ( 0.000000000000000000, 0.000000000000000000, 1.000000000000000000 ) ) ;
#114 = APPROVAL_DATE_TIME ( #63, #6 ) ;
#115 = COORDINATED_UNIVERSAL_TIME_OFFSET ( 5, 0, .BEHIND. ) ;
#116 = CC_DESIGN_SECURITY_CLASSIFICATION ( #127, ( #16 ) ) ;
#117 = APPLICATION_PROTOCOL_DEFINITION ( 'international standard', 'config_control_design', 1994, #111 ) ;
#118 = AXIS2_PLACEMENT_3D ( 'NONE', #91, #78, #62 ) ;
#119 = CIRCLE ( 'NONE', #135, 12.69999999999999929 ) ;
#120 = CARTESIAN_POINT ( 'NONE',  ( 12.69999999999999929, 1.555301434917138433E-15, 0.000000000000000000 ) ) ;
#121 = CARTESIAN_POINT ( 'NONE',  ( 0.000000000000000000, 0.000000000000000000, 0.000000000000000000 ) ) ;
#122 = ORIENTED_EDGE ( 'NONE', *, *, #147, .F. ) ;
#123 = ORIENTED_EDGE ( 'NONE', *, *, #106, .T. ) ;
#124 = EDGE_CURVE ( 'NONE', #155, #98, #169, .T. ) ;
#125 = ORIENTED_EDGE ( 'NONE', *, *, #163, .T. ) ;
#126 = CALENDAR_DATE ( 2022, 16, 3 ) ;
#127 = SECURITY_CLASSIFICATION ( '', '', #66 ) ;
#128 = CC_DESIGN_APPROVAL ( #6, ( #16 ) ) ;
#129 = CARTESIAN_POINT ( 'NONE',  ( 12.69999999999999929, 1.555301434917138433E-15, 1.000000000000000000 ) ) ;
#130 = CALENDAR_DATE ( 2022, 16, 3 ) ;
#131 = PRODUCT_DEFINITION ( 'UNKNOWN', '', #16, #96 ) ;
#132 = PERSON_AND_ORGANIZATION ( #25, #54 ) ;
#133 = DATE_AND_TIME ( #149, #53 ) ;
#134 = APPROVAL_DATE_TIME ( #84, #47 ) ;
#135 = AXIS2_PLACEMENT_3D ( 'NONE', #139, #88, #64 ) ;
#136 = AXIS2_PLACEMENT_3D ( 'NONE', #89, #156, #18 ) ;
#137 = DIRECTION ( 'NONE',  ( -0.000000000000000000, -0.000000000000000000, -1.000000000000000000 ) ) ;
#138 = APPLICATION_CONTEXT ( 'configuration controlled 3d designs of mechanical parts and assemblies' ) ;
#139 = CARTESIAN_POINT ( 'NONE',  ( 0.000000000000000000, 0.000000000000000000, 0.000000000000000000 ) ) ;
#140 = CIRCLE ( 'NONE', #107, 12.69999999999999929 ) ;
#141 = PERSON_AND_ORGANIZATION_ROLE ( 'design_owner' ) ;
#142 = CARTESIAN_POINT ( 'NONE',  ( -12.69999999999999929, 0.000000000000000000, 1.000000000000000000 ) ) ;
#143 = AXIS2_PLACEMENT_3D ( 'NONE', #38, #113, #35 ) ;
#144 = COORDINATED_UNIVERSAL_TIME_OFFSET ( 5, 0, .BEHIND. ) ;
#145 = PERSON_AND_ORGANIZATION_ROLE ( 'creator' ) ;
#146 = PERSON_AND_ORGANIZATION ( #25, #54 ) ;
#147 = EDGE_CURVE ( 'NONE', #34, #155, #140, .T. ) ;
#148 = CIRCLE ( 'NONE', #94, 12.69999999999999929 ) ;
#149 = CALENDAR_DATE ( 2022, 16, 3 ) ;
#150 = CLOSED_SHELL ( 'NONE', ( #97, #21, #43, #77 ) ) ;
#151 = EDGE_CURVE ( 'NONE', #155, #34, #50, .T. ) ;
#152 = DIRECTION ( 'NONE',  ( 1.000000000000000000, 0.000000000000000000, 0.000000000000000000 ) ) ;
#153 = CARTESIAN_POINT ( 'NONE',  ( 0.000000000000000000, 0.000000000000000000, 1.000000000000000000 ) ) ;
#154 = ORIENTED_EDGE ( 'NONE', *, *, #17, .F. ) ;
#155 = VERTEX_POINT ( 'NONE', #23 ) ;
#156 = DIRECTION ( 'NONE',  ( 0.000000000000000000, 0.000000000000000000, 1.000000000000000000 ) ) ;
#157 = APPROVAL_DATE_TIME ( #37, #100 ) ;
#158 = VECTOR ( 'NONE', #101, 1000.000000000000000 ) ;
#159 =( NAMED_UNIT ( * ) PLANE_ANGLE_UNIT ( ) SI_UNIT ( $, .RADIAN. ) );
#160 = CC_DESIGN_PERSON_AND_ORGANIZATION_ASSIGNMENT ( #9, #141, ( #67 ) ) ;
#161 = CC_DESIGN_PERSON_AND_ORGANIZATION_ASSIGNMENT ( #132, #28, ( #127 ) ) ;
#162 = ADVANCED_BREP_SHAPE_REPRESENTATION ( 'Web Model 43636_20971', ( #168, #143 ), #8 ) ;
#163 = EDGE_CURVE ( 'NONE', #34, #71, #46, .T. ) ;
#164 = CYLINDRICAL_SURFACE ( 'NONE', #45, 12.69999999999999929 ) ;
#165 = LOCAL_TIME ( 11, 38, 54.00000000000000000, #144 ) ;
#166 = CARTESIAN_POINT ( 'NONE',  ( 0.000000000000000000, 0.000000000000000000, 0.000000000000000000 ) ) ;
#167 = DIRECTION ( 'NONE',  ( -0.000000000000000000, -0.000000000000000000, -1.000000000000000000 ) ) ;
#168 = MANIFOLD_SOLID_BREP ( 'Boss-Extrude1', #150 ) ;
#169 = LINE ( 'NONE', #142, #59 ) ;
#170 = APPROVAL_STATUS ( 'not_yet_approved' ) ;
#171 = PERSON_AND_ORGANIZATION ( #25, #54 ) ;
#172 = LOCAL_TIME ( 11, 38, 54.00000000000000000, #27 ) ;
#173 = APPROVAL_ROLE ( '' ) ;
#174 = CC_DESIGN_PERSON_AND_ORGANIZATION_ASSIGNMENT ( #26, #95, ( #16 ) ) ;
#175 = PLANE ( 'NONE',  #136 ) ;
ENDSEC;
END-ISO-10303-21;
