ISO-10303-21;
HEADER;
FILE_DESCRIPTION (( 'STEP AP203' ),
    '1' );
FILE_NAME ('Web Model 46664_46665.step',
    '2017-04-10T15:39:55',
    ( '' ),
    ( '' ),
    'SwSTEP 2.0',
    'SolidWorks 2016',
    '' );
FILE_SCHEMA (( 'CONFIG_CONTROL_DESIGN' ));
ENDSEC;

DATA;
#1 = DATE_AND_TIME ( #93, #128 ) ;
#2 = COORDINATED_UNIVERSAL_TIME_OFFSET ( 5, 0, .BEHIND. ) ;
#3 = PRODUCT_DEFINITION_SHAPE ( 'NONE', 'NONE',  #52 ) ;
#4 = CARTESIAN_POINT ( 'NONE',  ( 0.0000000000000000000, 0.0000000000000000000, 0.0000000000000000000 ) ) ;
#5 = PRODUCT_DEFINITION_FORMATION_WITH_SPECIFIED_SOURCE ( 'ANY', '', #156, .NOT_KNOWN. ) ;
#6 = CYLINDRICAL_SURFACE ( 'NONE', #106, 6.250000000000000000 ) ;
#7 = ADVANCED_FACE ( 'NONE', ( #36 ), #155, .F. ) ;
#8 = CARTESIAN_POINT ( 'NONE',  ( 6.250000000000000000, 0.0000000000000000000, 0.5000000000000000000 ) ) ;
#9 = COORDINATED_UNIVERSAL_TIME_OFFSET ( 5, 0, .BEHIND. ) ;
#10 = DIRECTION ( 'NONE',  ( 0.0000000000000000000, 0.0000000000000000000, 1.000000000000000000 ) ) ;
#11 = DIRECTION ( 'NONE',  ( -0.0000000000000000000, -0.0000000000000000000, 1.000000000000000000 ) ) ;
#12 = CARTESIAN_POINT ( 'NONE',  ( 0.0000000000000000000, 0.0000000000000000000, -0.5000000000000000000 ) ) ;
#13 = CARTESIAN_POINT ( 'NONE',  ( 0.0000000000000000000, 0.0000000000000000000, 0.5000000000000000000 ) ) ;
#14 = ORIENTED_EDGE ( 'NONE', *, *, #89, .F. ) ;
#15 = CC_DESIGN_PERSON_AND_ORGANIZATION_ASSIGNMENT ( #147, #123, ( #5 ) ) ;
#16 = ORIENTED_EDGE ( 'NONE', *, *, #89, .T. ) ;
#17 = DIRECTION ( 'NONE',  ( 1.000000000000000000, 0.0000000000000000000, 0.0000000000000000000 ) ) ;
#18 = FACE_OUTER_BOUND ( 'NONE', #113, .T. ) ;
#19 = ADVANCED_FACE ( 'NONE', ( #98 ), #6, .T. ) ;
#20 = CARTESIAN_POINT ( 'NONE',  ( 0.0000000000000000000, 0.0000000000000000000, 0.5000000000000000000 ) ) ;
#21 = CALENDAR_DATE ( 2017, 10, 4 ) ;
#22 = CIRCLE ( 'NONE', #64, 6.250000000000000000 ) ;
#23 = APPROVAL_PERSON_ORGANIZATION ( #54, #42, #122 ) ;
#24 = DIRECTION ( 'NONE',  ( -0.0000000000000000000, -0.0000000000000000000, 1.000000000000000000 ) ) ;
#25 = CARTESIAN_POINT ( 'NONE',  ( 6.250000000000000000, 0.0000000000000000000, -0.5000000000000000000 ) ) ;
#26 = PRODUCT_RELATED_PRODUCT_CATEGORY ( 'detail', '', ( #156 ) ) ;
#27 = CARTESIAN_POINT ( 'NONE',  ( 0.0000000000000000000, 0.0000000000000000000, 0.0000000000000000000 ) ) ;
#28 = PERSON_AND_ORGANIZATION ( #103, #92 ) ;
#29 = AXIS2_PLACEMENT_3D ( 'NONE', #12, #134, #75 ) ;
#30 = PERSON_AND_ORGANIZATION ( #103, #92 ) ;
#31 = SHAPE_DEFINITION_REPRESENTATION ( #3, #137 ) ;
#32 = COORDINATED_UNIVERSAL_TIME_OFFSET ( 5, 0, .BEHIND. ) ;
#33 = ORIENTED_EDGE ( 'NONE', *, *, #85, .T. ) ;
#34 = CARTESIAN_POINT ( 'NONE',  ( 0.0000000000000000000, 0.0000000000000000000, 0.5000000000000000000 ) ) ;
#35 = CC_DESIGN_SECURITY_CLASSIFICATION ( #163, ( #5 ) ) ;
#36 = FACE_OUTER_BOUND ( 'NONE', #79, .T. ) ;
#37 = DIRECTION ( 'NONE',  ( -0.0000000000000000000, -0.0000000000000000000, 1.000000000000000000 ) ) ;
#38 = DIRECTION ( 'NONE',  ( 1.000000000000000000, 0.0000000000000000000, 0.0000000000000000000 ) ) ;
#39 = VECTOR ( 'NONE', #145, 1000.000000000000000 ) ;
#40 = AXIS2_PLACEMENT_3D ( 'NONE', #20, #24, #53 ) ;
#41 = APPLICATION_PROTOCOL_DEFINITION ( 'international standard', 'config_control_design', 1994, #49 ) ;
#42 = APPROVAL ( #120, 'UNSPECIFIED' ) ;
#43 = EDGE_CURVE ( 'NONE', #58, #57, #97, .T. ) ;
#44 = LOCAL_TIME ( 11, 39, 55.00000000000000000, #9 ) ;
#45 = ORIENTED_EDGE ( 'NONE', *, *, #43, .T. ) ;
#46 = PLANE ( 'NONE',  #161 ) ;
#47 = DIRECTION ( 'NONE',  ( 1.000000000000000000, 0.0000000000000000000, 0.0000000000000000000 ) ) ;
#48 = CC_DESIGN_APPROVAL ( #42, ( #5 ) ) ;
#49 = APPLICATION_CONTEXT ( 'configuration controlled 3d designs of mechanical parts and assemblies' ) ;
#50 = CARTESIAN_POINT ( 'NONE',  ( 0.0000000000000000000, 0.0000000000000000000, -0.5000000000000000000 ) ) ;
#51 =( NAMED_UNIT ( * ) PLANE_ANGLE_UNIT ( ) SI_UNIT ( $, .RADIAN. ) );
#52 = PRODUCT_DEFINITION ( 'UNKNOWN', '', #5, #125 ) ;
#53 = DIRECTION ( 'NONE',  ( 1.000000000000000000, 0.0000000000000000000, 0.0000000000000000000 ) ) ;
#54 = PERSON_AND_ORGANIZATION ( #103, #92 ) ;
#55 = ORIENTED_EDGE ( 'NONE', *, *, #151, .F. ) ;
#56 = VERTEX_POINT ( 'NONE', #25 ) ;
#57 = VERTEX_POINT ( 'NONE', #8 ) ;
#58 = VERTEX_POINT ( 'NONE', #152 ) ;
#59 = DIRECTION ( 'NONE',  ( -0.0000000000000000000, -0.0000000000000000000, 1.000000000000000000 ) ) ;
#60 = CC_DESIGN_PERSON_AND_ORGANIZATION_ASSIGNMENT ( #70, #118, ( #52 ) ) ;
#61 = DIRECTION ( 'NONE',  ( 1.000000000000000000, 0.0000000000000000000, 0.0000000000000000000 ) ) ;
#62 = CARTESIAN_POINT ( 'NONE',  ( -6.250000000000000000, 7.654042494670957600E-016, 0.0000000000000000000 ) ) ;
#63 = VECTOR ( 'NONE', #80, 1000.000000000000000 ) ;
#64 = AXIS2_PLACEMENT_3D ( 'NONE', #108, #11, #38 ) ;
#65 = DIRECTION ( 'NONE',  ( 1.000000000000000000, 0.0000000000000000000, 0.0000000000000000000 ) ) ;
#66 = APPROVAL_DATE_TIME ( #157, #116 ) ;
#67 = APPROVAL_DATE_TIME ( #144, #42 ) ;
#68 = LINE ( 'NONE', #77, #39 ) ;
#69 = CALENDAR_DATE ( 2017, 10, 4 ) ;
#70 = PERSON_AND_ORGANIZATION ( #103, #92 ) ;
#71 = EDGE_LOOP ( 'NONE', ( #91, #45 ) ) ;
#72 = EDGE_CURVE ( 'NONE', #88, #58, #173, .T. ) ;
#73 = ORIENTED_EDGE ( 'NONE', *, *, #85, .F. ) ;
#74 = CYLINDRICAL_SURFACE ( 'NONE', #160, 6.250000000000000000 ) ;
#75 = DIRECTION ( 'NONE',  ( 1.000000000000000000, 0.0000000000000000000, 0.0000000000000000000 ) ) ;
#76 = ADVANCED_FACE ( 'NONE', ( #84 ), #46, .F. ) ;
#77 = CARTESIAN_POINT ( 'NONE',  ( 6.250000000000000000, 0.0000000000000000000, 0.0000000000000000000 ) ) ;
#78 = ORIENTED_EDGE ( 'NONE', *, *, #151, .T. ) ;
#79 = EDGE_LOOP ( 'NONE', ( #14, #73 ) ) ;
#80 = DIRECTION ( 'NONE',  ( -0.0000000000000000000, -0.0000000000000000000, 1.000000000000000000 ) ) ;
#81 = CC_DESIGN_DATE_AND_TIME_ASSIGNMENT ( #1, #119, ( #52 ) ) ;
#82 = MECHANICAL_CONTEXT ( 'NONE', #49, 'mechanical' ) ;
#83 = PERSON_AND_ORGANIZATION_ROLE ( 'design_owner' ) ;
#84 = FACE_OUTER_BOUND ( 'NONE', #71, .T. ) ;
#85 = EDGE_CURVE ( 'NONE', #88, #56, #22, .T. ) ;
#86 = SECURITY_CLASSIFICATION_LEVEL ( 'unclassified' ) ;
#87 = LOCAL_TIME ( 11, 39, 55.00000000000000000, #149 ) ;
#88 = VERTEX_POINT ( 'NONE', #135 ) ;
#89 = EDGE_CURVE ( 'NONE', #56, #88, #112, .T. ) ;
#90 = LOCAL_TIME ( 11, 39, 55.00000000000000000, #2 ) ;
#91 = ORIENTED_EDGE ( 'NONE', *, *, #110, .T. ) ;
#92 = ORGANIZATION ( 'UNSPECIFIED', 'UNSPECIFIED', '' ) ;
#93 = CALENDAR_DATE ( 2017, 10, 4 ) ;
#94 = LOCAL_TIME ( 11, 39, 55.00000000000000000, #114 ) ;
#95 = APPROVAL_DATE_TIME ( #136, #139 ) ;
#96 = PERSON_AND_ORGANIZATION_ROLE ( 'design_supplier' ) ;
#97 = CIRCLE ( 'NONE', #174, 6.250000000000000000 ) ;
#98 = FACE_OUTER_BOUND ( 'NONE', #107, .T. ) ;
#99 =( LENGTH_UNIT ( ) NAMED_UNIT ( * ) SI_UNIT ( .MILLI., .METRE. ) );
#100 = CC_DESIGN_APPROVAL ( #139, ( #163 ) ) ;
#101 = DATE_AND_TIME ( #115, #90 ) ;
#102 = PERSON_AND_ORGANIZATION_ROLE ( 'classification_officer' ) ;
#103 = PERSON ( 'UNSPECIFIED', 'UNSPECIFIED', 'UNSPECIFIED', ('UNSPECIFIED'), ('UNSPECIFIED'), ('UNSPECIFIED') ) ;
#104 = UNCERTAINTY_MEASURE_WITH_UNIT (LENGTH_MEASURE( 1.000000000000000100E-005 ), #99, 'distance_accuracy_value', 'NONE');
#105 = APPLICATION_PROTOCOL_DEFINITION ( 'international standard', 'config_control_design', 1994, #129 ) ;
#106 = AXIS2_PLACEMENT_3D ( 'NONE', #27, #140, #65 ) ;
#107 = EDGE_LOOP ( 'NONE', ( #148, #33, #78, #167 ) ) ;
#108 = CARTESIAN_POINT ( 'NONE',  ( 0.0000000000000000000, 0.0000000000000000000, -0.5000000000000000000 ) ) ;
#109 = CARTESIAN_POINT ( 'NONE',  ( 0.0000000000000000000, 0.0000000000000000000, 0.0000000000000000000 ) ) ;
#110 = EDGE_CURVE ( 'NONE', #57, #58, #132, .T. ) ;
#111 = APPROVAL_STATUS ( 'not_yet_approved' ) ;
#112 = CIRCLE ( 'NONE', #166, 6.250000000000000000 ) ;
#113 = EDGE_LOOP ( 'NONE', ( #16, #164, #175, #55 ) ) ;
#114 = COORDINATED_UNIVERSAL_TIME_OFFSET ( 5, 0, .BEHIND. ) ;
#115 = CALENDAR_DATE ( 2017, 10, 4 ) ;
#116 = APPROVAL ( #111, 'UNSPECIFIED' ) ;
#117 = APPROVAL_ROLE ( '' ) ;
#118 = PERSON_AND_ORGANIZATION_ROLE ( 'creator' ) ;
#119 = DATE_TIME_ROLE ( 'creation_date' ) ;
#120 = APPROVAL_STATUS ( 'not_yet_approved' ) ;
#121 = PERSON_AND_ORGANIZATION ( #103, #92 ) ;
#122 = APPROVAL_ROLE ( '' ) ;
#123 = PERSON_AND_ORGANIZATION_ROLE ( 'creator' ) ;
#124 = CLOSED_SHELL ( 'NONE', ( #142, #76, #19, #7 ) ) ;
#125 = DESIGN_CONTEXT ( 'detailed design', #129, 'design' ) ;
#126 = CC_DESIGN_DATE_AND_TIME_ASSIGNMENT ( #101, #130, ( #163 ) ) ;
#127 = MANIFOLD_SOLID_BREP ( 'Revolve1', #124 ) ;
#128 = LOCAL_TIME ( 11, 39, 55.00000000000000000, #32 ) ;
#129 = APPLICATION_CONTEXT ( 'configuration controlled 3d designs of mechanical parts and assemblies' ) ;
#130 = DATE_TIME_ROLE ( 'classification_date' ) ;
#131 = DIRECTION ( 'NONE',  ( -0.0000000000000000000, -0.0000000000000000000, 1.000000000000000000 ) ) ;
#132 = CIRCLE ( 'NONE', #40, 6.250000000000000000 ) ;
#133 = CC_DESIGN_PERSON_AND_ORGANIZATION_ASSIGNMENT ( #169, #102, ( #163 ) ) ;
#134 = DIRECTION ( 'NONE',  ( 0.0000000000000000000, -0.0000000000000000000, 1.000000000000000000 ) ) ;
#135 = CARTESIAN_POINT ( 'NONE',  ( -6.250000000000000000, 7.654042494670957600E-016, -0.5000000000000000000 ) ) ;
#136 = DATE_AND_TIME ( #69, #44 ) ;
#137 = ADVANCED_BREP_SHAPE_REPRESENTATION ( 'Web Model 46664_46665', ( #127, #150 ), #138 ) ;
#138 =( GEOMETRIC_REPRESENTATION_CONTEXT ( 3 ) GLOBAL_UNCERTAINTY_ASSIGNED_CONTEXT ( ( #104 ) ) GLOBAL_UNIT_ASSIGNED_CONTEXT ( ( #99, #51, #159 ) ) REPRESENTATION_CONTEXT ( 'NONE', 'WORKASPACE' ) );
#139 = APPROVAL ( #143, 'UNSPECIFIED' ) ;
#140 = DIRECTION ( 'NONE',  ( -0.0000000000000000000, -0.0000000000000000000, 1.000000000000000000 ) ) ;
#141 = DIRECTION ( 'NONE',  ( 0.0000000000000000000, 0.0000000000000000000, -1.000000000000000000 ) ) ;
#142 = ADVANCED_FACE ( 'NONE', ( #18 ), #74, .T. ) ;
#143 = APPROVAL_STATUS ( 'not_yet_approved' ) ;
#144 = DATE_AND_TIME ( #21, #94 ) ;
#145 = DIRECTION ( 'NONE',  ( -0.0000000000000000000, -0.0000000000000000000, 1.000000000000000000 ) ) ;
#146 = APPROVAL_ROLE ( '' ) ;
#147 = PERSON_AND_ORGANIZATION ( #103, #92 ) ;
#148 = ORIENTED_EDGE ( 'NONE', *, *, #72, .F. ) ;
#149 = COORDINATED_UNIVERSAL_TIME_OFFSET ( 5, 0, .BEHIND. ) ;
#150 = AXIS2_PLACEMENT_3D ( 'NONE', #4, #10, #17 ) ;
#151 = EDGE_CURVE ( 'NONE', #56, #57, #68, .T. ) ;
#152 = CARTESIAN_POINT ( 'NONE',  ( -6.250000000000000000, 7.654042494670957600E-016, 0.5000000000000000000 ) ) ;
#153 = PERSON_AND_ORGANIZATION ( #103, #92 ) ;
#154 = DIRECTION ( 'NONE',  ( -1.000000000000000000, 0.0000000000000000000, -0.0000000000000000000 ) ) ;
#155 = PLANE ( 'NONE',  #29 ) ;
#156 = PRODUCT ( 'Web Model 46664_46665', 'Web Model 46664_46665', '', ( #82 ) ) ;
#157 = DATE_AND_TIME ( #165, #87 ) ;
#158 = CC_DESIGN_PERSON_AND_ORGANIZATION_ASSIGNMENT ( #121, #96, ( #5 ) ) ;
#159 =( NAMED_UNIT ( * ) SI_UNIT ( $, .STERADIAN. ) SOLID_ANGLE_UNIT ( ) );
#160 = AXIS2_PLACEMENT_3D ( 'NONE', #109, #37, #47 ) ;
#161 = AXIS2_PLACEMENT_3D ( 'NONE', #13, #141, #154 ) ;
#162 = DIRECTION ( 'NONE',  ( 1.000000000000000000, 0.0000000000000000000, 0.0000000000000000000 ) ) ;
#163 = SECURITY_CLASSIFICATION ( '', '', #86 ) ;
#164 = ORIENTED_EDGE ( 'NONE', *, *, #72, .T. ) ;
#165 = CALENDAR_DATE ( 2017, 10, 4 ) ;
#166 = AXIS2_PLACEMENT_3D ( 'NONE', #50, #131, #162 ) ;
#167 = ORIENTED_EDGE ( 'NONE', *, *, #43, .F. ) ;
#168 = APPROVAL_PERSON_ORGANIZATION ( #30, #139, #146 ) ;
#169 = PERSON_AND_ORGANIZATION ( #103, #92 ) ;
#170 = CC_DESIGN_APPROVAL ( #116, ( #52 ) ) ;
#171 = APPROVAL_PERSON_ORGANIZATION ( #153, #116, #117 ) ;
#172 = CC_DESIGN_PERSON_AND_ORGANIZATION_ASSIGNMENT ( #28, #83, ( #156 ) ) ;
#173 = LINE ( 'NONE', #62, #63 ) ;
#174 = AXIS2_PLACEMENT_3D ( 'NONE', #34, #59, #61 ) ;
#175 = ORIENTED_EDGE ( 'NONE', *, *, #110, .F. ) ;
ENDSEC;
END-ISO-10303-21;
