ISO-10303-21;
HEADER;
FILE_DESCRIPTION (( 'STEP AP203' ),
    '1' );
FILE_NAME ('Ø25mm High Energy Laser Line Polarizer_86710.step',
    '2018-07-19T13:00:54',
    ( '' ),
    ( '' ),
    'SwSTEP 2.0',
    'SolidWorks 2016',
    '' );
FILE_SCHEMA (( 'CONFIG_CONTROL_DESIGN' ));
ENDSEC;

DATA;
#1 = CARTESIAN_POINT ( 'NONE',  ( -0.3744701114176315900, 1.220614474678271000, -0.4937592923385106800 ) ) ;
#2 = ORIENTED_EDGE ( 'NONE', *, *, #143, .F. ) ;
#3 = CALENDAR_DATE ( 2018, 19, 7 ) ;
#4 = CC_DESIGN_SECURITY_CLASSIFICATION ( #100, ( #28 ) ) ;
#5 = CARTESIAN_POINT ( 'NONE',  ( -1.351762367519993900, 1.220614474678271000, -0.4867995799369360100 ) ) ;
#6 = CYLINDRICAL_SURFACE ( 'NONE', #54, 0.4921259842519684100 ) ;
#7 = APPROVAL_ROLE ( '' ) ;
#8 = AXIS2_PLACEMENT_3D ( 'NONE', #90, #238, #239 ) ;
#9 = PERSON_AND_ORGANIZATION_ROLE ( 'design_owner' ) ;
#10 = CALENDAR_DATE ( 2018, 19, 7 ) ;
#11 = FACE_OUTER_BOUND ( 'NONE', #103, .T. ) ;
#12 = ORIENTED_EDGE ( 'NONE', *, *, #231, .F. ) ;
#13 = LENGTH_MEASURE_WITH_UNIT ( LENGTH_MEASURE( 0.02539999999999999900 ), #152 );
#14 = COORDINATED_UNIVERSAL_TIME_OFFSET ( 5, 0, .BEHIND. ) ;
#15 = CARTESIAN_POINT ( 'NONE',  ( -0.8596363832680253800, 1.220614474678271000, -0.4937592923385106800 ) ) ;
#16 = ORIENTED_EDGE ( 'NONE', *, *, #202, .F. ) ;
#17 = DIRECTION ( 'NONE',  ( 1.000000000000000000, 0.0000000000000000000, 0.0000000000000000000 ) ) ;
#18 = CARTESIAN_POINT ( 'NONE',  ( -0.8596363832680253800, 1.220614474678271000, -0.2575388198975657700 ) ) ;
#19 = AXIS2_PLACEMENT_3D ( 'NONE', #235, #44, #192 ) ;
#20 = CONICAL_SURFACE ( 'NONE', #119, 0.4921259842519685200, 0.7853981633974531600 ) ;
#21 = ORIENTED_EDGE ( 'NONE', *, *, #229, .T. ) ;
#22 =( CONVERSION_BASED_UNIT ( 'INCH', #13 ) LENGTH_UNIT ( ) NAMED_UNIT ( #144 ) );
#23 = CARTESIAN_POINT ( 'NONE',  ( -0.3675103990160568700, 1.220614474678271000, -0.2644985322991403300 ) ) ;
#24 = CARTESIAN_POINT ( 'NONE',  ( -0.3744701114176313100, 1.220614474678271000, -0.2575388198975657700 ) ) ;
#25 = EDGE_CURVE ( 'NONE', #211, #155, #216, .T. ) ;
#26 = PRODUCT ( 'Ø25mm High Energy Laser Line Polarizer_86710', 'Ø25mm High Energy Laser Line Polarizer_86710', '', ( #135 ) ) ;
#27 = LOCAL_TIME ( 9, 0, 54.00000000000000000, #124 ) ;
#28 = PRODUCT_DEFINITION_FORMATION_WITH_SPECIFIED_SOURCE ( 'ANY', '', #26, .NOT_KNOWN. ) ;
#29 = VECTOR ( 'NONE', #214, 39.37007874015748100 ) ;
#30 = PERSON_AND_ORGANIZATION_ROLE ( 'design_supplier' ) ;
#31 = CALENDAR_DATE ( 2018, 19, 7 ) ;
#32 = AXIS2_PLACEMENT_3D ( 'NONE', #188, #57, #84 ) ;
#33 = FACE_OUTER_BOUND ( 'NONE', #257, .T. ) ;
#34 = PERSON_AND_ORGANIZATION ( #219, #94 ) ;
#35 = CIRCLE ( 'NONE', #38, 0.4921259842519685200 ) ;
#36 = VERTEX_POINT ( 'NONE', #252 ) ;
#37 = EDGE_CURVE ( 'NONE', #70, #53, #59, .T. ) ;
#38 = AXIS2_PLACEMENT_3D ( 'NONE', #87, #41, #174 ) ;
#39 = CARTESIAN_POINT ( 'NONE',  ( -0.3675103990160568700, 1.220614474678271000, -0.2575388198975657700 ) ) ;
#40 = DIRECTION ( 'NONE',  ( 1.000000000000000000, 0.0000000000000000000, 0.0000000000000000000 ) ) ;
#41 = DIRECTION ( 'NONE',  ( -0.0000000000000000000, -0.0000000000000000000, 1.000000000000000000 ) ) ;
#42 = DIRECTION ( 'NONE',  ( -0.0000000000000000000, -0.0000000000000000000, 1.000000000000000000 ) ) ;
#43 = DIRECTION ( 'NONE',  ( -0.7071067811865509000, 8.659560562354974800E-017, 0.7071067811865440200 ) ) ;
#44 = DIRECTION ( 'NONE',  ( -0.0000000000000000000, -0.0000000000000000000, -1.000000000000000000 ) ) ;
#45 = CC_DESIGN_APPROVAL ( #269, ( #100 ) ) ;
#46 = CARTESIAN_POINT ( 'NONE',  ( -0.8596363832680253800, 1.220614474678271000, -0.4937592923385106800 ) ) ;
#47 = LINE ( 'NONE', #5, #76 ) ;
#48 = APPLICATION_CONTEXT ( 'configuration controlled 3d designs of mechanical parts and assemblies' ) ;
#49 =( GEOMETRIC_REPRESENTATION_CONTEXT ( 3 ) GLOBAL_UNCERTAINTY_ASSIGNED_CONTEXT ( ( #201 ) ) GLOBAL_UNIT_ASSIGNED_CONTEXT ( ( #22, #61, #277 ) ) REPRESENTATION_CONTEXT ( 'NONE', 'WORKASPACE' ) );
#50 = LOCAL_TIME ( 9, 0, 54.00000000000000000, #148 ) ;
#51 = EDGE_CURVE ( 'NONE', #36, #190, #165, .T. ) ;
#52 = ORIENTED_EDGE ( 'NONE', *, *, #62, .F. ) ;
#53 = VERTEX_POINT ( 'NONE', #198 ) ;
#54 = AXIS2_PLACEMENT_3D ( 'NONE', #236, #111, #261 ) ;
#55 = CLOSED_SHELL ( 'NONE', ( #159, #270, #222, #248, #184, #78, #225, #117 ) ) ;
#56 = DIRECTION ( 'NONE',  ( 0.0000000000000000000, 0.0000000000000000000, 1.000000000000000000 ) ) ;
#57 = DIRECTION ( 'NONE',  ( 0.0000000000000000000, 0.0000000000000000000, -1.000000000000000000 ) ) ;
#58 = DIRECTION ( 'NONE',  ( -1.000000000000000000, 0.0000000000000000000, 0.0000000000000000000 ) ) ;
#59 = CIRCLE ( 'NONE', #74, 0.4851662718503940700 ) ;
#60 = DIRECTION ( 'NONE',  ( 0.0000000000000000000, 0.0000000000000000000, 1.000000000000000000 ) ) ;
#61 =( NAMED_UNIT ( * ) PLANE_ANGLE_UNIT ( ) SI_UNIT ( $, .RADIAN. ) );
#62 = EDGE_CURVE ( 'NONE', #155, #253, #145, .T. ) ;
#63 = CC_DESIGN_APPROVAL ( #273, ( #101 ) ) ;
#64 = CARTESIAN_POINT ( 'NONE',  ( -0.8596363832680253800, 1.220614474678271000, -0.4867995799369360100 ) ) ;
#65 = PERSON_AND_ORGANIZATION ( #219, #94 ) ;
#66 = CARTESIAN_POINT ( 'NONE',  ( 0.0000000000000000000, 0.0000000000000000000, 0.0000000000000000000 ) ) ;
#67 = LOCAL_TIME ( 9, 0, 54.00000000000000000, #244 ) ;
#68 = DIRECTION ( 'NONE',  ( -0.7071067811865440200, 0.0000000000000000000, -0.7071067811865510100 ) ) ;
#69 = CIRCLE ( 'NONE', #251, 0.4921259842519685200 ) ;
#70 = VERTEX_POINT ( 'NONE', #149 ) ;
#71 = APPROVAL_STATUS ( 'not_yet_approved' ) ;
#72 = ORIENTED_EDGE ( 'NONE', *, *, #51, .F. ) ;
#73 = PERSON_AND_ORGANIZATION_ROLE ( 'creator' ) ;
#74 = AXIS2_PLACEMENT_3D ( 'NONE', #232, #60, #17 ) ;
#75 = APPROVAL_PERSON_ORGANIZATION ( #264, #269, #265 ) ;
#76 = VECTOR ( 'NONE', #43, 39.37007874015748900 ) ;
#77 = FACE_OUTER_BOUND ( 'NONE', #116, .T. ) ;
#78 = ADVANCED_FACE ( 'NONE', ( #33 ), #107, .F. ) ;
#79 = DATE_AND_TIME ( #3, #27 ) ;
#80 = APPROVAL ( #96, 'UNSPECIFIED' ) ;
#81 = SHAPE_DEFINITION_REPRESENTATION ( #146, #108 ) ;
#82 = CARTESIAN_POINT ( 'NONE',  ( -0.8596363832680253800, 1.220614474678271000, -0.2575388198975657700 ) ) ;
#83 = CARTESIAN_POINT ( 'NONE',  ( -0.8596363832680253800, 1.220614474678271000, -0.2575388198975657700 ) ) ;
#84 = DIRECTION ( 'NONE',  ( 1.000000000000000000, 0.0000000000000000000, 0.0000000000000000000 ) ) ;
#85 = CARTESIAN_POINT ( 'NONE',  ( -1.351762367519993900, 1.220614474678271000, -0.2575388198975657700 ) ) ;
#86 = CONICAL_SURFACE ( 'NONE', #224, 0.4851662718503939600, 0.7853981633974433900 ) ;
#87 = CARTESIAN_POINT ( 'NONE',  ( -0.8596363832680253800, 1.220614474678271000, -0.4867995799369360100 ) ) ;
#88 = PERSON_AND_ORGANIZATION ( #219, #94 ) ;
#89 = CC_DESIGN_PERSON_AND_ORGANIZATION_ASSIGNMENT ( #34, #9, ( #26 ) ) ;
#90 = CARTESIAN_POINT ( 'NONE',  ( -0.8596363832680253800, 1.220614474678271000, -0.4867995799369360100 ) ) ;
#91 = CARTESIAN_POINT ( 'NONE',  ( -0.3675103990160568700, 1.220614474678271000, -0.4867995799369360100 ) ) ;
#92 = LINE ( 'NONE', #39, #245 ) ;
#93 = DIRECTION ( 'NONE',  ( 0.7071067811865509000, 0.0000000000000000000, 0.7071067811865440200 ) ) ;
#94 = ORGANIZATION ( 'UNSPECIFIED', 'UNSPECIFIED', '' ) ;
#95 = EDGE_LOOP ( 'NONE', ( #121, #195, #98, #246 ) ) ;
#96 = APPROVAL_STATUS ( 'not_yet_approved' ) ;
#97 = CC_DESIGN_PERSON_AND_ORGANIZATION_ASSIGNMENT ( #129, #73, ( #101 ) ) ;
#98 = ORIENTED_EDGE ( 'NONE', *, *, #62, .T. ) ;
#99 = DATE_AND_TIME ( #228, #50 ) ;
#100 = SECURITY_CLASSIFICATION ( '', '', #157 ) ;
#101 = PRODUCT_DEFINITION ( 'UNKNOWN', '', #28, #268 ) ;
#102 = ORIENTED_EDGE ( 'NONE', *, *, #25, .F. ) ;
#103 = EDGE_LOOP ( 'NONE', ( #12, #16, #21, #274 ) ) ;
#104 = DIRECTION ( 'NONE',  ( -0.0000000000000000000, -0.0000000000000000000, -1.000000000000000000 ) ) ;
#105 = DIRECTION ( 'NONE',  ( -1.000000000000000000, 0.0000000000000000000, 0.0000000000000000000 ) ) ;
#106 = EDGE_LOOP ( 'NONE', ( #147, #267, #241, #52 ) ) ;
#107 = PLANE ( 'NONE',  #182 ) ;
#108 = ADVANCED_BREP_SHAPE_REPRESENTATION ( '+25mm High Energy Laser Line Polarizer_86710', ( #209, #164 ), #49 ) ;
#109 = EDGE_CURVE ( 'NONE', #211, #166, #92, .T. ) ;
#110 = ORIENTED_EDGE ( 'NONE', *, *, #51, .T. ) ;
#111 = DIRECTION ( 'NONE',  ( -0.0000000000000000000, -0.0000000000000000000, -1.000000000000000000 ) ) ;
#112 = CARTESIAN_POINT ( 'NONE',  ( -0.8596363832680253800, 1.220614474678271000, -0.4867995799369360100 ) ) ;
#113 = APPROVAL_PERSON_ORGANIZATION ( #255, #273, #115 ) ;
#114 = ORIENTED_EDGE ( 'NONE', *, *, #202, .T. ) ;
#115 = APPROVAL_ROLE ( '' ) ;
#116 = EDGE_LOOP ( 'NONE', ( #2, #234, #197, #128 ) ) ;
#117 = ADVANCED_FACE ( 'NONE', ( #133 ), #203, .T. ) ;
#118 = CC_DESIGN_PERSON_AND_ORGANIZATION_ASSIGNMENT ( #88, #30, ( #28 ) ) ;
#119 = AXIS2_PLACEMENT_3D ( 'NONE', #64, #42, #215 ) ;
#120 = FACE_OUTER_BOUND ( 'NONE', #106, .T. ) ;
#121 = ORIENTED_EDGE ( 'NONE', *, *, #109, .F. ) ;
#122 = EDGE_CURVE ( 'NONE', #155, #211, #181, .T. ) ;
#123 = CC_DESIGN_DATE_AND_TIME_ASSIGNMENT ( #79, #196, ( #101 ) ) ;
#124 = COORDINATED_UNIVERSAL_TIME_OFFSET ( 5, 0, .BEHIND. ) ;
#125 = AXIS2_PLACEMENT_3D ( 'NONE', #18, #170, #105 ) ;
#126 = DIRECTION ( 'NONE',  ( -0.0000000000000000000, -0.0000000000000000000, -1.000000000000000000 ) ) ;
#127 = CIRCLE ( 'NONE', #130, 0.4851662718503940700 ) ;
#128 = ORIENTED_EDGE ( 'NONE', *, *, #256, .F. ) ;
#129 = PERSON_AND_ORGANIZATION ( #219, #94 ) ;
#130 = AXIS2_PLACEMENT_3D ( 'NONE', #82, #169, #40 ) ;
#131 = PLANE ( 'NONE',  #141 ) ;
#132 = VECTOR ( 'NONE', #93, 39.37007874015748900 ) ;
#133 = FACE_OUTER_BOUND ( 'NONE', #205, .T. ) ;
#134 = ORIENTED_EDGE ( 'NONE', *, *, #185, .F. ) ;
#135 = MECHANICAL_CONTEXT ( 'NONE', #156, 'mechanical' ) ;
#136 = ORIENTED_EDGE ( 'NONE', *, *, #37, .T. ) ;
#137 = APPROVAL_DATE_TIME ( #207, #269 ) ;
#138 = CC_DESIGN_DATE_AND_TIME_ASSIGNMENT ( #153, #179, ( #100 ) ) ;
#139 = APPROVAL_DATE_TIME ( #230, #273 ) ;
#140 = CYLINDRICAL_SURFACE ( 'NONE', #19, 0.4921259842519684100 ) ;
#141 = AXIS2_PLACEMENT_3D ( 'NONE', #260, #176, #154 ) ;
#142 = PERSON_AND_ORGANIZATION_ROLE ( 'classification_officer' ) ;
#143 = EDGE_CURVE ( 'NONE', #53, #70, #127, .T. ) ;
#144 = DIMENSIONAL_EXPONENTS ( 1.000000000000000000, 0.0000000000000000000, 0.0000000000000000000, 0.0000000000000000000, 0.0000000000000000000, 0.0000000000000000000, 0.0000000000000000000 ) ;
#145 = LINE ( 'NONE', #85, #160 ) ;
#146 = PRODUCT_DEFINITION_SHAPE ( 'NONE', 'NONE',  #101 ) ;
#147 = ORIENTED_EDGE ( 'NONE', *, *, #122, .T. ) ;
#148 = COORDINATED_UNIVERSAL_TIME_OFFSET ( 5, 0, .BEHIND. ) ;
#149 = CARTESIAN_POINT ( 'NONE',  ( -1.344802655118419300, 1.220614474678271000, -0.2575388198975657700 ) ) ;
#150 = DIRECTION ( 'NONE',  ( 0.0000000000000000000, 0.0000000000000000000, -1.000000000000000000 ) ) ;
#151 = PRODUCT_RELATED_PRODUCT_CATEGORY ( 'detail', '', ( #26 ) ) ;
#152 =( LENGTH_UNIT ( ) NAMED_UNIT ( * ) SI_UNIT ( $, .METRE. ) );
#153 = DATE_AND_TIME ( #31, #217 ) ;
#154 = DIRECTION ( 'NONE',  ( 1.000000000000000000, 0.0000000000000000000, -0.0000000000000000000 ) ) ;
#155 = VERTEX_POINT ( 'NONE', #233 ) ;
#156 = APPLICATION_CONTEXT ( 'configuration controlled 3d designs of mechanical parts and assemblies' ) ;
#157 = SECURITY_CLASSIFICATION_LEVEL ( 'unclassified' ) ;
#158 = PERSON_AND_ORGANIZATION_ROLE ( 'creator' ) ;
#159 = ADVANCED_FACE ( 'NONE', ( #77 ), #86, .T. ) ;
#160 = VECTOR ( 'NONE', #104, 39.37007874015748100 ) ;
#161 = AXIS2_PLACEMENT_3D ( 'NONE', #46, #193, #175 ) ;
#162 = ORIENTED_EDGE ( 'NONE', *, *, #256, .T. ) ;
#163 = ORIENTED_EDGE ( 'NONE', *, *, #37, .F. ) ;
#164 = AXIS2_PLACEMENT_3D ( 'NONE', #66, #278, #221 ) ;
#165 = CIRCLE ( 'NONE', #208, 0.4851662718503937900 ) ;
#166 = VERTEX_POINT ( 'NONE', #91 ) ;
#167 = DIRECTION ( 'NONE',  ( 1.000000000000000000, 0.0000000000000000000, 0.0000000000000000000 ) ) ;
#168 = LOCAL_TIME ( 9, 0, 54.00000000000000000, #14 ) ;
#169 = DIRECTION ( 'NONE',  ( 0.0000000000000000000, 0.0000000000000000000, 1.000000000000000000 ) ) ;
#170 = DIRECTION ( 'NONE',  ( 0.0000000000000000000, 0.0000000000000000000, -1.000000000000000000 ) ) ;
#171 = CARTESIAN_POINT ( 'NONE',  ( -0.8596363832680253800, 1.220614474678271000, -0.4937592923385106800 ) ) ;
#172 = ORIENTED_EDGE ( 'NONE', *, *, #229, .F. ) ;
#173 = CONICAL_SURFACE ( 'NONE', #8, 0.4921259842519685200, 0.7853981633974531600 ) ;
#174 = DIRECTION ( 'NONE',  ( 1.000000000000000000, 0.0000000000000000000, 0.0000000000000000000 ) ) ;
#175 = DIRECTION ( 'NONE',  ( 1.000000000000000000, 0.0000000000000000000, 0.0000000000000000000 ) ) ;
#176 = DIRECTION ( 'NONE',  ( 0.0000000000000000000, 0.0000000000000000000, 1.000000000000000000 ) ) ;
#177 = APPLICATION_PROTOCOL_DEFINITION ( 'international standard', 'config_control_design', 1994, #48 ) ;
#178 = APPROVAL_STATUS ( 'not_yet_approved' ) ;
#179 = DATE_TIME_ROLE ( 'classification_date' ) ;
#180 = EDGE_CURVE ( 'NONE', #53, #211, #199, .T. ) ;
#181 = CIRCLE ( 'NONE', #32, 0.4921259842519685200 ) ;
#182 = AXIS2_PLACEMENT_3D ( 'NONE', #15, #56, #206 ) ;
#183 = EDGE_LOOP ( 'NONE', ( #136, #254 ) ) ;
#184 = ADVANCED_FACE ( 'NONE', ( #240 ), #131, .T. ) ;
#185 = EDGE_CURVE ( 'NONE', #166, #253, #35, .T. ) ;
#186 = COORDINATED_UNIVERSAL_TIME_OFFSET ( 5, 0, .BEHIND. ) ;
#187 = EDGE_CURVE ( 'NONE', #253, #166, #69, .T. ) ;
#188 = CARTESIAN_POINT ( 'NONE',  ( -0.8596363832680253800, 1.220614474678271000, -0.2644985322991403300 ) ) ;
#189 = DIRECTION ( 'NONE',  ( -0.0000000000000000000, -0.0000000000000000000, 1.000000000000000000 ) ) ;
#190 = VERTEX_POINT ( 'NONE', #1 ) ;
#191 = DIRECTION ( 'NONE',  ( 1.000000000000000000, 0.0000000000000000000, 0.0000000000000000000 ) ) ;
#192 = DIRECTION ( 'NONE',  ( -1.000000000000000000, 0.0000000000000000000, 0.0000000000000000000 ) ) ;
#193 = DIRECTION ( 'NONE',  ( -0.0000000000000000000, -0.0000000000000000000, -1.000000000000000000 ) ) ;
#194 = FACE_OUTER_BOUND ( 'NONE', #213, .T. ) ;
#195 = ORIENTED_EDGE ( 'NONE', *, *, #25, .T. ) ;
#196 = DATE_TIME_ROLE ( 'creation_date' ) ;
#197 = ORIENTED_EDGE ( 'NONE', *, *, #122, .F. ) ;
#198 = CARTESIAN_POINT ( 'NONE',  ( -0.3744701114176313100, 1.220614474678271000, -0.2575388198975657700 ) ) ;
#199 = LINE ( 'NONE', #24, #29 ) ;
#200 = PERSON_AND_ORGANIZATION ( #219, #94 ) ;
#201 = UNCERTAINTY_MEASURE_WITH_UNIT (LENGTH_MEASURE( 1.000000000000000100E-005 ), #22, 'distance_accuracy_value', 'NONE');
#202 = EDGE_CURVE ( 'NONE', #190, #36, #243, .T. ) ;
#203 = CONICAL_SURFACE ( 'NONE', #125, 0.4851662718503939600, 0.7853981633974433900 ) ;
#204 = DIRECTION ( 'NONE',  ( -0.0000000000000000000, -0.0000000000000000000, -1.000000000000000000 ) ) ;
#205 = EDGE_LOOP ( 'NONE', ( #212, #163, #162, #102 ) ) ;
#206 = DIRECTION ( 'NONE',  ( 1.000000000000000000, 0.0000000000000000000, -0.0000000000000000000 ) ) ;
#207 = DATE_AND_TIME ( #272, #168 ) ;
#208 = AXIS2_PLACEMENT_3D ( 'NONE', #171, #126, #167 ) ;
#209 = MANIFOLD_SOLID_BREP ( '83977310-1-solid1', #55 ) ;
#210 = LINE ( 'NONE', #258, #266 ) ;
#211 = VERTEX_POINT ( 'NONE', #23 ) ;
#212 = ORIENTED_EDGE ( 'NONE', *, *, #180, .F. ) ;
#213 = EDGE_LOOP ( 'NONE', ( #72, #262, #134, #172 ) ) ;
#214 = DIRECTION ( 'NONE',  ( 0.7071067811865440200, 8.659560562354888500E-017, -0.7071067811865510100 ) ) ;
#215 = DIRECTION ( 'NONE',  ( 1.000000000000000000, 0.0000000000000000000, 0.0000000000000000000 ) ) ;
#216 = CIRCLE ( 'NONE', #242, 0.4921259842519685200 ) ;
#217 = LOCAL_TIME ( 9, 0, 54.00000000000000000, #186 ) ;
#218 = CARTESIAN_POINT ( 'NONE',  ( -0.3675103990160568700, 1.220614474678271000, -0.4867995799369360100 ) ) ;
#219 = PERSON ( 'UNSPECIFIED', 'UNSPECIFIED', 'UNSPECIFIED', ('UNSPECIFIED'), ('UNSPECIFIED'), ('UNSPECIFIED') ) ;
#220 = APPLICATION_PROTOCOL_DEFINITION ( 'international standard', 'config_control_design', 1994, #156 ) ;
#221 = DIRECTION ( 'NONE',  ( 1.000000000000000000, 0.0000000000000000000, 0.0000000000000000000 ) ) ;
#222 = ADVANCED_FACE ( 'NONE', ( #120 ), #140, .T. ) ;
#223 = CC_DESIGN_PERSON_AND_ORGANIZATION_ASSIGNMENT ( #200, #158, ( #28 ) ) ;
#224 = AXIS2_PLACEMENT_3D ( 'NONE', #83, #150, #58 ) ;
#225 = ADVANCED_FACE ( 'NONE', ( #11 ), #20, .T. ) ;
#226 = DIRECTION ( 'NONE',  ( 0.0000000000000000000, 0.0000000000000000000, -1.000000000000000000 ) ) ;
#227 = FACE_OUTER_BOUND ( 'NONE', #95, .T. ) ;
#228 = CALENDAR_DATE ( 2018, 19, 7 ) ;
#229 = EDGE_CURVE ( 'NONE', #190, #166, #250, .T. ) ;
#230 = DATE_AND_TIME ( #10, #67 ) ;
#231 = EDGE_CURVE ( 'NONE', #36, #253, #47, .T. ) ;
#232 = CARTESIAN_POINT ( 'NONE',  ( -0.8596363832680253800, 1.220614474678271000, -0.2575388198975657700 ) ) ;
#233 = CARTESIAN_POINT ( 'NONE',  ( -1.351762367519993900, 1.220614474678271000, -0.2644985322991403300 ) ) ;
#234 = ORIENTED_EDGE ( 'NONE', *, *, #180, .T. ) ;
#235 = CARTESIAN_POINT ( 'NONE',  ( -0.8596363832680253800, 1.220614474678271000, -0.2575388198975657700 ) ) ;
#236 = CARTESIAN_POINT ( 'NONE',  ( -0.8596363832680253800, 1.220614474678271000, -0.2575388198975657700 ) ) ;
#237 = CC_DESIGN_APPROVAL ( #80, ( #28 ) ) ;
#238 = DIRECTION ( 'NONE',  ( -0.0000000000000000000, -0.0000000000000000000, 1.000000000000000000 ) ) ;
#239 = DIRECTION ( 'NONE',  ( 1.000000000000000000, 0.0000000000000000000, 0.0000000000000000000 ) ) ;
#240 = FACE_OUTER_BOUND ( 'NONE', #183, .T. ) ;
#241 = ORIENTED_EDGE ( 'NONE', *, *, #185, .T. ) ;
#242 = AXIS2_PLACEMENT_3D ( 'NONE', #271, #226, #276 ) ;
#243 = CIRCLE ( 'NONE', #161, 0.4851662718503937900 ) ;
#244 = COORDINATED_UNIVERSAL_TIME_OFFSET ( 5, 0, .BEHIND. ) ;
#245 = VECTOR ( 'NONE', #204, 39.37007874015748100 ) ;
#246 = ORIENTED_EDGE ( 'NONE', *, *, #187, .T. ) ;
#247 = APPROVAL_DATE_TIME ( #99, #80 ) ;
#248 = ADVANCED_FACE ( 'NONE', ( #227 ), #6, .T. ) ;
#249 = CC_DESIGN_PERSON_AND_ORGANIZATION_ASSIGNMENT ( #275, #142, ( #100 ) ) ;
#250 = LINE ( 'NONE', #218, #132 ) ;
#251 = AXIS2_PLACEMENT_3D ( 'NONE', #112, #189, #191 ) ;
#252 = CARTESIAN_POINT ( 'NONE',  ( -1.344802655118419300, 1.220614474678271000, -0.4937592923385106800 ) ) ;
#253 = VERTEX_POINT ( 'NONE', #263 ) ;
#254 = ORIENTED_EDGE ( 'NONE', *, *, #143, .T. ) ;
#255 = PERSON_AND_ORGANIZATION ( #219, #94 ) ;
#256 = EDGE_CURVE ( 'NONE', #70, #155, #210, .T. ) ;
#257 = EDGE_LOOP ( 'NONE', ( #114, #110 ) ) ;
#258 = CARTESIAN_POINT ( 'NONE',  ( -1.344802655118419300, 1.220614474678271000, -0.2575388198975657700 ) ) ;
#259 = APPROVAL_PERSON_ORGANIZATION ( #65, #80, #7 ) ;
#260 = CARTESIAN_POINT ( 'NONE',  ( -0.8596363832680253800, 1.220614474678271000, -0.2575388198975657700 ) ) ;
#261 = DIRECTION ( 'NONE',  ( -1.000000000000000000, 0.0000000000000000000, 0.0000000000000000000 ) ) ;
#262 = ORIENTED_EDGE ( 'NONE', *, *, #231, .T. ) ;
#263 = CARTESIAN_POINT ( 'NONE',  ( -1.351762367519993900, 1.220614474678271000, -0.4867995799369360100 ) ) ;
#264 = PERSON_AND_ORGANIZATION ( #219, #94 ) ;
#265 = APPROVAL_ROLE ( '' ) ;
#266 = VECTOR ( 'NONE', #68, 39.37007874015748100 ) ;
#267 = ORIENTED_EDGE ( 'NONE', *, *, #109, .T. ) ;
#268 = DESIGN_CONTEXT ( 'detailed design', #48, 'design' ) ;
#269 = APPROVAL ( #71, 'UNSPECIFIED' ) ;
#270 = ADVANCED_FACE ( 'NONE', ( #194 ), #173, .T. ) ;
#271 = CARTESIAN_POINT ( 'NONE',  ( -0.8596363832680253800, 1.220614474678271000, -0.2644985322991403300 ) ) ;
#272 = CALENDAR_DATE ( 2018, 19, 7 ) ;
#273 = APPROVAL ( #178, 'UNSPECIFIED' ) ;
#274 = ORIENTED_EDGE ( 'NONE', *, *, #187, .F. ) ;
#275 = PERSON_AND_ORGANIZATION ( #219, #94 ) ;
#276 = DIRECTION ( 'NONE',  ( 1.000000000000000000, 0.0000000000000000000, 0.0000000000000000000 ) ) ;
#277 =( NAMED_UNIT ( * ) SI_UNIT ( $, .STERADIAN. ) SOLID_ANGLE_UNIT ( ) );
#278 = DIRECTION ( 'NONE',  ( 0.0000000000000000000, 0.0000000000000000000, 1.000000000000000000 ) ) ;
ENDSEC;
END-ISO-10303-21;
