ISO-10303-21;
HEADER;
FILE_DESCRIPTION (( 'STEP AP203' ),
    '1' );
FILE_NAME ('Web Model 45075_13312.step',
    '2020-11-03T21:47:02',
    ( '' ),
    ( '' ),
    'SwSTEP 2.0',
    'SolidWorks 2018',
    '' );
FILE_SCHEMA (( 'CONFIG_CONTROL_DESIGN' ));
ENDSEC;

DATA;
#1 = DIRECTION ( 'NONE',  ( 1.000000000000000000, 0.0000000000000000000, 0.0000000000000000000 ) ) ;
#2 = DIRECTION ( 'NONE',  ( 1.000000000000000000, 0.0000000000000000000, -0.0000000000000000000 ) ) ;
#3 = DIRECTION ( 'NONE',  ( 1.000000000000000000, 0.0000000000000000000, 0.0000000000000000000 ) ) ;
#4 = EDGE_CURVE ( 'NONE', #141, #152, #31, .T. ) ;
#5 = DATE_AND_TIME ( #34, #75 ) ;
#6 = APPLICATION_CONTEXT ( 'configuration controlled 3d designs of mechanical parts and assemblies' ) ;
#7 = VECTOR ( 'NONE', #135, 1000.000000000000000 ) ;
#8 = AXIS2_PLACEMENT_3D ( 'NONE', #72, #81, #83 ) ;
#9 = COORDINATED_UNIVERSAL_TIME_OFFSET ( 5, 0, .BEHIND. ) ;
#10 = AXIS2_PLACEMENT_3D ( 'NONE', #148, #149, #168 ) ;
#11 = DATE_AND_TIME ( #48, #43 ) ;
#12 = CLOSED_SHELL ( 'NONE', ( #50, #78, #51, #35 ) ) ;
#13 = DIRECTION ( 'NONE',  ( 1.000000000000000000, 0.0000000000000000000, 0.0000000000000000000 ) ) ;
#14 = SECURITY_CLASSIFICATION_LEVEL ( 'unclassified' ) ;
#15 = APPROVAL_ROLE ( '' ) ;
#16 = PERSON ( 'UNSPECIFIED', 'UNSPECIFIED', 'UNSPECIFIED', ('UNSPECIFIED'), ('UNSPECIFIED'), ('UNSPECIFIED') ) ;
#17 = FACE_OUTER_BOUND ( 'NONE', #175, .T. ) ;
#18 = CARTESIAN_POINT ( 'NONE',  ( -6.250000000000000000, 7.654042494670957606E-16, -3.000000000000000000 ) ) ;
#19 = PERSON_AND_ORGANIZATION ( #16, #174 ) ;
#20 = ORIENTED_EDGE ( 'NONE', *, *, #4, .F. ) ;
#21 = LOCAL_TIME ( 16, 47, 2.000000000000000000, #53 ) ;
#22 = FACE_OUTER_BOUND ( 'NONE', #161, .T. ) ;
#23 = PLANE ( 'NONE',  #69 ) ;
#24 = DIRECTION ( 'NONE',  ( 0.0000000000000000000, 0.0000000000000000000, 1.000000000000000000 ) ) ;
#25 = CARTESIAN_POINT ( 'NONE',  ( 6.250000000000000000, 0.0000000000000000000, -3.000000000000000000 ) ) ;
#26 = APPLICATION_CONTEXT ( 'configuration controlled 3d designs of mechanical parts and assemblies' ) ;
#27 = PERSON_AND_ORGANIZATION_ROLE ( 'design_supplier' ) ;
#28 = PRODUCT_DEFINITION_FORMATION_WITH_SPECIFIED_SOURCE ( 'ANY', '', #171, .NOT_KNOWN. ) ;
#29 = UNCERTAINTY_MEASURE_WITH_UNIT (LENGTH_MEASURE( 1.000000000000000082E-05 ), #123, 'distance_accuracy_value', 'NONE');
#30 = DATE_AND_TIME ( #101, #21 ) ;
#31 = CIRCLE ( 'NONE', #99, 6.250000000000000000 ) ;
#32 = AXIS2_PLACEMENT_3D ( 'NONE', #121, #65, #13 ) ;
#33 = PERSON_AND_ORGANIZATION ( #16, #174 ) ;
#34 = CALENDAR_DATE ( 2020, 3, 11 ) ;
#35 = ADVANCED_FACE ( 'NONE', ( #22 ), #36, .T. ) ;
#36 = PLANE ( 'NONE',  #8 ) ;
#37 = DIRECTION ( 'NONE',  ( 0.0000000000000000000, 0.0000000000000000000, 1.000000000000000000 ) ) ;
#38 = EDGE_LOOP ( 'NONE', ( #20, #111 ) ) ;
#39 = CC_DESIGN_PERSON_AND_ORGANIZATION_ASSIGNMENT ( #167, #74, ( #100 ) ) ;
#40 = CARTESIAN_POINT ( 'NONE',  ( 0.0000000000000000000, 0.0000000000000000000, -3.000000000000000000 ) ) ;
#41 = AXIS2_PLACEMENT_3D ( 'NONE', #143, #24, #163 ) ;
#42 = APPROVAL ( #96, 'UNSPECIFIED' ) ;
#43 = LOCAL_TIME ( 16, 47, 2.000000000000000000, #158 ) ;
#44 = SHAPE_DEFINITION_REPRESENTATION ( #151, #157 ) ;
#45 =( NAMED_UNIT ( * ) PLANE_ANGLE_UNIT ( ) SI_UNIT ( $, .RADIAN. ) );
#46 = CC_DESIGN_PERSON_AND_ORGANIZATION_ASSIGNMENT ( #33, #137, ( #171 ) ) ;
#47 = DIRECTION ( 'NONE',  ( 0.0000000000000000000, 0.0000000000000000000, 1.000000000000000000 ) ) ;
#48 = CALENDAR_DATE ( 2020, 3, 11 ) ;
#49 = ORIENTED_EDGE ( 'NONE', *, *, #164, .T. ) ;
#50 = ADVANCED_FACE ( 'NONE', ( #17 ), #124, .T. ) ;
#51 = ADVANCED_FACE ( 'NONE', ( #155 ), #23, .F. ) ;
#52 = PRODUCT_DEFINITION ( 'UNKNOWN', '', #28, #56 ) ;
#53 = COORDINATED_UNIVERSAL_TIME_OFFSET ( 5, 0, .BEHIND. ) ;
#54 = VERTEX_POINT ( 'NONE', #142 ) ;
#55 = ORIENTED_EDGE ( 'NONE', *, *, #170, .F. ) ;
#56 = DESIGN_CONTEXT ( 'detailed design', #26, 'design' ) ;
#57 = CARTESIAN_POINT ( 'NONE',  ( 0.0000000000000000000, 0.0000000000000000000, -3.000000000000000000 ) ) ;
#58 = CC_DESIGN_APPROVAL ( #140, ( #52 ) ) ;
#59 = APPROVAL_DATE_TIME ( #84, #42 ) ;
#60 = DIRECTION ( 'NONE',  ( 1.000000000000000000, 0.0000000000000000000, 0.0000000000000000000 ) ) ;
#61 = EDGE_LOOP ( 'NONE', ( #92, #89, #49, #116 ) ) ;
#62 = APPLICATION_PROTOCOL_DEFINITION ( 'international standard', 'config_control_design', 1994, #6 ) ;
#63 = CC_DESIGN_SECURITY_CLASSIFICATION ( #100, ( #28 ) ) ;
#64 = CARTESIAN_POINT ( 'NONE',  ( 6.250000000000000000, 0.0000000000000000000, -3.000000000000000000 ) ) ;
#65 = DIRECTION ( 'NONE',  ( 0.0000000000000000000, 0.0000000000000000000, 1.000000000000000000 ) ) ;
#66 = CC_DESIGN_DATE_AND_TIME_ASSIGNMENT ( #11, #122, ( #100 ) ) ;
#67 = APPROVAL_DATE_TIME ( #5, #146 ) ;
#68 = APPROVAL_DATE_TIME ( #105, #140 ) ;
#69 = AXIS2_PLACEMENT_3D ( 'NONE', #117, #37, #2 ) ;
#70 = PRODUCT_RELATED_PRODUCT_CATEGORY ( 'detail', '', ( #171 ) ) ;
#71 = DIRECTION ( 'NONE',  ( 1.000000000000000000, 0.0000000000000000000, 0.0000000000000000000 ) ) ;
#72 = CARTESIAN_POINT ( 'NONE',  ( 0.0000000000000000000, 0.0000000000000000000, 0.0000000000000000000 ) ) ;
#73 = CARTESIAN_POINT ( 'NONE',  ( -6.250000000000000000, 7.654042494670957606E-16, -3.000000000000000000 ) ) ;
#74 = PERSON_AND_ORGANIZATION_ROLE ( 'classification_officer' ) ;
#75 = LOCAL_TIME ( 16, 47, 2.000000000000000000, #9 ) ;
#76 = EDGE_CURVE ( 'NONE', #54, #107, #173, .T. ) ;
#77 = CC_DESIGN_PERSON_AND_ORGANIZATION_ASSIGNMENT ( #19, #106, ( #28 ) ) ;
#78 = ADVANCED_FACE ( 'NONE', ( #90 ), #88, .T. ) ;
#79 = PERSON_AND_ORGANIZATION ( #16, #174 ) ;
#80 = VECTOR ( 'NONE', #47, 1000.000000000000000 ) ;
#81 = DIRECTION ( 'NONE',  ( 0.0000000000000000000, 0.0000000000000000000, 1.000000000000000000 ) ) ;
#82 = ORIENTED_EDGE ( 'NONE', *, *, #164, .F. ) ;
#83 = DIRECTION ( 'NONE',  ( 1.000000000000000000, 0.0000000000000000000, -0.0000000000000000000 ) ) ;
#84 = DATE_AND_TIME ( #91, #119 ) ;
#85 = APPROVAL_STATUS ( 'not_yet_approved' ) ;
#86 = PERSON_AND_ORGANIZATION_ROLE ( 'creator' ) ;
#87 = APPROVAL_STATUS ( 'not_yet_approved' ) ;
#88 = CYLINDRICAL_SURFACE ( 'NONE', #147, 6.250000000000000000 ) ;
#89 = ORIENTED_EDGE ( 'NONE', *, *, #130, .T. ) ;
#90 = FACE_OUTER_BOUND ( 'NONE', #61, .T. ) ;
#91 = CALENDAR_DATE ( 2020, 3, 11 ) ;
#92 = ORIENTED_EDGE ( 'NONE', *, *, #120, .F. ) ;
#93 = APPROVAL_ROLE ( '' ) ;
#94 = APPLICATION_PROTOCOL_DEFINITION ( 'international standard', 'config_control_design', 1994, #26 ) ;
#95 = DATE_TIME_ROLE ( 'creation_date' ) ;
#96 = APPROVAL_STATUS ( 'not_yet_approved' ) ;
#97 = DIRECTION ( 'NONE',  ( 0.0000000000000000000, 0.0000000000000000000, 1.000000000000000000 ) ) ;
#98 = CIRCLE ( 'NONE', #108, 6.250000000000000000 ) ;
#99 = AXIS2_PLACEMENT_3D ( 'NONE', #40, #162, #60 ) ;
#100 = SECURITY_CLASSIFICATION ( '', '', #14 ) ;
#101 = CALENDAR_DATE ( 2020, 3, 11 ) ;
#102 = CC_DESIGN_APPROVAL ( #146, ( #100 ) ) ;
#103 = CC_DESIGN_PERSON_AND_ORGANIZATION_ASSIGNMENT ( #138, #86, ( #52 ) ) ;
#104 = CARTESIAN_POINT ( 'NONE',  ( 0.0000000000000000000, 0.0000000000000000000, -3.000000000000000000 ) ) ;
#105 = DATE_AND_TIME ( #110, #136 ) ;
#106 = PERSON_AND_ORGANIZATION_ROLE ( 'creator' ) ;
#107 = VERTEX_POINT ( 'NONE', #118 ) ;
#108 = AXIS2_PLACEMENT_3D ( 'NONE', #109, #97, #3 ) ;
#109 = CARTESIAN_POINT ( 'NONE',  ( 0.0000000000000000000, 0.0000000000000000000, -3.000000000000000000 ) ) ;
#110 = CALENDAR_DATE ( 2020, 3, 11 ) ;
#111 = ORIENTED_EDGE ( 'NONE', *, *, #130, .F. ) ;
#112 = ORIENTED_EDGE ( 'NONE', *, *, #170, .T. ) ;
#113 = COORDINATED_UNIVERSAL_TIME_OFFSET ( 5, 0, .BEHIND. ) ;
#114 = LINE ( 'NONE', #64, #7 ) ;
#115 =( GEOMETRIC_REPRESENTATION_CONTEXT ( 3 ) GLOBAL_UNCERTAINTY_ASSIGNED_CONTEXT ( ( #29 ) ) GLOBAL_UNIT_ASSIGNED_CONTEXT ( ( #123, #45, #166 ) ) REPRESENTATION_CONTEXT ( 'NONE', 'WORKASPACE' ) );
#116 = ORIENTED_EDGE ( 'NONE', *, *, #76, .F. ) ;
#117 = CARTESIAN_POINT ( 'NONE',  ( 0.0000000000000000000, 0.0000000000000000000, -3.000000000000000000 ) ) ;
#118 = CARTESIAN_POINT ( 'NONE',  ( 6.250000000000000000, 0.0000000000000000000, 0.0000000000000000000 ) ) ;
#119 = LOCAL_TIME ( 16, 47, 2.000000000000000000, #113 ) ;
#120 = EDGE_CURVE ( 'NONE', #152, #54, #159, .T. ) ;
#121 = CARTESIAN_POINT ( 'NONE',  ( 0.0000000000000000000, 0.0000000000000000000, 0.0000000000000000000 ) ) ;
#122 = DATE_TIME_ROLE ( 'classification_date' ) ;
#123 =( LENGTH_UNIT ( ) NAMED_UNIT ( * ) SI_UNIT ( .MILLI., .METRE. ) );
#124 = CYLINDRICAL_SURFACE ( 'NONE', #139, 6.250000000000000000 ) ;
#125 = APPROVAL_ROLE ( '' ) ;
#126 = PERSON_AND_ORGANIZATION ( #16, #174 ) ;
#127 = APPROVAL_PERSON_ORGANIZATION ( #145, #146, #15 ) ;
#128 = CC_DESIGN_DATE_AND_TIME_ASSIGNMENT ( #30, #95, ( #52 ) ) ;
#129 = ORIENTED_EDGE ( 'NONE', *, *, #120, .T. ) ;
#130 = EDGE_CURVE ( 'NONE', #152, #141, #98, .T. ) ;
#131 = PERSON_AND_ORGANIZATION ( #16, #174 ) ;
#132 = DIRECTION ( 'NONE',  ( 0.0000000000000000000, 0.0000000000000000000, 1.000000000000000000 ) ) ;
#133 = ORIENTED_EDGE ( 'NONE', *, *, #76, .T. ) ;
#134 = MANIFOLD_SOLID_BREP ( 'Extrude1', #12 ) ;
#135 = DIRECTION ( 'NONE',  ( 0.0000000000000000000, 0.0000000000000000000, 1.000000000000000000 ) ) ;
#136 = LOCAL_TIME ( 16, 47, 2.000000000000000000, #172 ) ;
#137 = PERSON_AND_ORGANIZATION_ROLE ( 'design_owner' ) ;
#138 = PERSON_AND_ORGANIZATION ( #16, #174 ) ;
#139 = AXIS2_PLACEMENT_3D ( 'NONE', #104, #144, #71 ) ;
#140 = APPROVAL ( #85, 'UNSPECIFIED' ) ;
#141 = VERTEX_POINT ( 'NONE', #25 ) ;
#142 = CARTESIAN_POINT ( 'NONE',  ( -6.250000000000000000, 7.654042494670957606E-16, 0.0000000000000000000 ) ) ;
#143 = CARTESIAN_POINT ( 'NONE',  ( 0.0000000000000000000, 0.0000000000000000000, 0.0000000000000000000 ) ) ;
#144 = DIRECTION ( 'NONE',  ( 0.0000000000000000000, 0.0000000000000000000, 1.000000000000000000 ) ) ;
#145 = PERSON_AND_ORGANIZATION ( #16, #174 ) ;
#146 = APPROVAL ( #87, 'UNSPECIFIED' ) ;
#147 = AXIS2_PLACEMENT_3D ( 'NONE', #57, #132, #1 ) ;
#148 = CARTESIAN_POINT ( 'NONE',  ( 0.0000000000000000000, 0.0000000000000000000, 0.0000000000000000000 ) ) ;
#149 = DIRECTION ( 'NONE',  ( 0.0000000000000000000, 0.0000000000000000000, 1.000000000000000000 ) ) ;
#150 = MECHANICAL_CONTEXT ( 'NONE', #6, 'mechanical' ) ;
#151 = PRODUCT_DEFINITION_SHAPE ( 'NONE', 'NONE',  #52 ) ;
#152 = VERTEX_POINT ( 'NONE', #18 ) ;
#153 = CC_DESIGN_APPROVAL ( #42, ( #28 ) ) ;
#154 = APPROVAL_PERSON_ORGANIZATION ( #126, #140, #93 ) ;
#155 = FACE_OUTER_BOUND ( 'NONE', #38, .T. ) ;
#156 = ORIENTED_EDGE ( 'NONE', *, *, #4, .T. ) ;
#157 = ADVANCED_BREP_SHAPE_REPRESENTATION ( 'Web Model 45075_13312', ( #134, #10 ), #115 ) ;
#158 = COORDINATED_UNIVERSAL_TIME_OFFSET ( 5, 0, .BEHIND. ) ;
#159 = LINE ( 'NONE', #73, #80 ) ;
#160 = CC_DESIGN_PERSON_AND_ORGANIZATION_ASSIGNMENT ( #131, #27, ( #28 ) ) ;
#161 = EDGE_LOOP ( 'NONE', ( #112, #133 ) ) ;
#162 = DIRECTION ( 'NONE',  ( 0.0000000000000000000, 0.0000000000000000000, 1.000000000000000000 ) ) ;
#163 = DIRECTION ( 'NONE',  ( 1.000000000000000000, 0.0000000000000000000, 0.0000000000000000000 ) ) ;
#164 = EDGE_CURVE ( 'NONE', #141, #107, #114, .T. ) ;
#165 = APPROVAL_PERSON_ORGANIZATION ( #79, #42, #125 ) ;
#166 =( NAMED_UNIT ( * ) SI_UNIT ( $, .STERADIAN. ) SOLID_ANGLE_UNIT ( ) );
#167 = PERSON_AND_ORGANIZATION ( #16, #174 ) ;
#168 = DIRECTION ( 'NONE',  ( 1.000000000000000000, 0.0000000000000000000, 0.0000000000000000000 ) ) ;
#169 = CIRCLE ( 'NONE', #32, 6.250000000000000000 ) ;
#170 = EDGE_CURVE ( 'NONE', #107, #54, #169, .T. ) ;
#171 = PRODUCT ( 'Web Model 45075_13312', 'Web Model 45075_13312', '', ( #150 ) ) ;
#172 = COORDINATED_UNIVERSAL_TIME_OFFSET ( 5, 0, .BEHIND. ) ;
#173 = CIRCLE ( 'NONE', #41, 6.250000000000000000 ) ;
#174 = ORGANIZATION ( 'UNSPECIFIED', 'UNSPECIFIED', '' ) ;
#175 = EDGE_LOOP ( 'NONE', ( #156, #129, #55, #82 ) ) ;
ENDSEC;
END-ISO-10303-21;
