ISO-10303-21;
HEADER;
FILE_DESCRIPTION (( 'STEP AP203' ),
    '1' );
FILE_NAME ('Web Model 15741_15743.step',
    '2020-10-19T15:32:55',
    ( '' ),
    ( '' ),
    'SwSTEP 2.0',
    'SolidWorks 2018',
    '' );
FILE_SCHEMA (( 'CONFIG_CONTROL_DESIGN' ));
ENDSEC;

DATA;
#1 = EDGE_CURVE ( 'NONE', #136, #166, #49, .T. ) ;
#2 = PERSON_AND_ORGANIZATION ( #211, #178 ) ;
#3 = FACE_OUTER_BOUND ( 'NONE', #148, .T. ) ;
#4 = EDGE_CURVE ( 'NONE', #103, #73, #94, .T. ) ;
#5 = CARTESIAN_POINT ( 'NONE',  ( -25.00000000000000000, -12.50000000000000000, 3.000000000000000000 ) ) ;
#6 = APPLICATION_PROTOCOL_DEFINITION ( 'international standard', 'config_control_design', 1994, #184 ) ;
#7 = CC_DESIGN_DATE_AND_TIME_ASSIGNMENT ( #26, #96, ( #121 ) ) ;
#8 = APPLICATION_CONTEXT ( 'configuration controlled 3d designs of mechanical parts and assemblies' ) ;
#9 = PERSON_AND_ORGANIZATION_ROLE ( 'design_supplier' ) ;
#10 = CARTESIAN_POINT ( 'NONE',  ( -25.00000000000000000, -12.50000000000000000, -3.000000000000000000 ) ) ;
#11 = CARTESIAN_POINT ( 'NONE',  ( 24.99999999999999645, 12.50000000000000533, -3.000000000000000000 ) ) ;
#12 = ADVANCED_FACE ( 'NONE', ( #3 ), #235, .F. ) ;
#13 = CARTESIAN_POINT ( 'NONE',  ( 25.00000000000000000, -12.49999999999999822, -3.000000000000000000 ) ) ;
#14 = ORIENTED_EDGE ( 'NONE', *, *, #191, .T. ) ;
#15 = AXIS2_PLACEMENT_3D ( 'NONE', #159, #143, #38 ) ;
#16 = APPROVAL_DATE_TIME ( #59, #151 ) ;
#17 = CALENDAR_DATE ( 2020, 19, 10 ) ;
#18 = LINE ( 'NONE', #229, #22 ) ;
#19 = LOCAL_TIME ( 11, 32, 55.00000000000000000, #142 ) ;
#20 = ORIENTED_EDGE ( 'NONE', *, *, #51, .T. ) ;
#21 = CLOSED_SHELL ( 'NONE', ( #131, #82, #57, #12, #119, #92 ) ) ;
#22 = VECTOR ( 'NONE', #64, 1000.000000000000000 ) ;
#23 = PLANE ( 'NONE',  #15 ) ;
#24 = AXIS2_PLACEMENT_3D ( 'NONE', #5, #25, #66 ) ;
#25 = DIRECTION ( 'NONE',  ( 1.000000000000000000, 0.0000000000000000000, 0.0000000000000000000 ) ) ;
#26 = DATE_AND_TIME ( #88, #19 ) ;
#27 = PLANE ( 'NONE',  #107 ) ;
#28 = SECURITY_CLASSIFICATION_LEVEL ( 'unclassified' ) ;
#29 = DIRECTION ( 'NONE',  ( 1.000000000000000000, 3.469446951953614189E-17, -0.0000000000000000000 ) ) ;
#30 = ORIENTED_EDGE ( 'NONE', *, *, #87, .F. ) ;
#31 =( GEOMETRIC_REPRESENTATION_CONTEXT ( 3 ) GLOBAL_UNCERTAINTY_ASSIGNED_CONTEXT ( ( #133 ) ) GLOBAL_UNIT_ASSIGNED_CONTEXT ( ( #197, #97, #43 ) ) REPRESENTATION_CONTEXT ( 'NONE', 'WORKASPACE' ) );
#32 = SHAPE_DEFINITION_REPRESENTATION ( #181, #154 ) ;
#33 = CARTESIAN_POINT ( 'NONE',  ( 24.99999999999999645, 12.50000000000000533, 3.000000000000000000 ) ) ;
#34 = CARTESIAN_POINT ( 'NONE',  ( 24.99999999999999645, 12.50000000000000533, 3.000000000000000000 ) ) ;
#35 = EDGE_CURVE ( 'NONE', #213, #174, #41, .T. ) ;
#36 = VERTEX_POINT ( 'NONE', #10 ) ;
#37 = AXIS2_PLACEMENT_3D ( 'NONE', #139, #177, #179 ) ;
#38 = DIRECTION ( 'NONE',  ( 1.387778780781445429E-16, -1.000000000000000000, 0.0000000000000000000 ) ) ;
#39 = ORIENTED_EDGE ( 'NONE', *, *, #4, .F. ) ;
#40 = DATE_AND_TIME ( #198, #89 ) ;
#41 = LINE ( 'NONE', #118, #190 ) ;
#42 = CARTESIAN_POINT ( 'NONE',  ( 24.99999999999999645, 12.50000000000000533, -3.000000000000000000 ) ) ;
#43 =( NAMED_UNIT ( * ) SI_UNIT ( $, .STERADIAN. ) SOLID_ANGLE_UNIT ( ) );
#44 = AXIS2_PLACEMENT_3D ( 'NONE', #50, #122, #124 ) ;
#45 = APPROVAL_ROLE ( '' ) ;
#46 = COORDINATED_UNIVERSAL_TIME_OFFSET ( 5, 0, .BEHIND. ) ;
#47 = MECHANICAL_CONTEXT ( 'NONE', #184, 'mechanical' ) ;
#48 = DIRECTION ( 'NONE',  ( -1.000000000000000000, -1.040834085586084257E-16, 0.0000000000000000000 ) ) ;
#49 = LINE ( 'NONE', #203, #234 ) ;
#50 = CARTESIAN_POINT ( 'NONE',  ( 25.00000000000000000, -12.49999999999999822, 3.000000000000000000 ) ) ;
#51 = EDGE_CURVE ( 'NONE', #166, #213, #201, .T. ) ;
#52 = DIRECTION ( 'NONE',  ( 1.040834085586084133E-16, -1.000000000000000000, 0.0000000000000000000 ) ) ;
#53 = DESIGN_CONTEXT ( 'detailed design', #8, 'design' ) ;
#54 = COORDINATED_UNIVERSAL_TIME_OFFSET ( 5, 0, .BEHIND. ) ;
#55 = LINE ( 'NONE', #33, #152 ) ;
#56 = ORIENTED_EDGE ( 'NONE', *, *, #35, .F. ) ;
#57 = ADVANCED_FACE ( 'NONE', ( #207 ), #23, .F. ) ;
#58 = CC_DESIGN_PERSON_AND_ORGANIZATION_ASSIGNMENT ( #209, #67, ( #208 ) ) ;
#59 = DATE_AND_TIME ( #17, #169 ) ;
#60 = ORIENTED_EDGE ( 'NONE', *, *, #113, .T. ) ;
#61 = LINE ( 'NONE', #116, #155 ) ;
#62 = EDGE_CURVE ( 'NONE', #174, #73, #55, .T. ) ;
#63 = DIRECTION ( 'NONE',  ( 1.000000000000000000, 0.0000000000000000000, -0.0000000000000000000 ) ) ;
#64 = DIRECTION ( 'NONE',  ( -0.0000000000000000000, -0.0000000000000000000, -1.000000000000000000 ) ) ;
#65 = DIRECTION ( 'NONE',  ( 1.000000000000000000, 0.0000000000000000000, -0.0000000000000000000 ) ) ;
#66 = DIRECTION ( 'NONE',  ( 0.0000000000000000000, 0.0000000000000000000, -1.000000000000000000 ) ) ;
#67 = PERSON_AND_ORGANIZATION_ROLE ( 'creator' ) ;
#68 = DIRECTION ( 'NONE',  ( -0.0000000000000000000, -0.0000000000000000000, -1.000000000000000000 ) ) ;
#69 = APPROVAL ( #84, 'UNSPECIFIED' ) ;
#70 = ORIENTED_EDGE ( 'NONE', *, *, #113, .F. ) ;
#71 = VECTOR ( 'NONE', #199, 1000.000000000000000 ) ;
#72 = APPROVAL_PERSON_ORGANIZATION ( #150, #134, #83 ) ;
#73 = VERTEX_POINT ( 'NONE', #11 ) ;
#74 = ORIENTED_EDGE ( 'NONE', *, *, #1, .F. ) ;
#75 = LINE ( 'NONE', #180, #210 ) ;
#76 = ORIENTED_EDGE ( 'NONE', *, *, #130, .F. ) ;
#77 = CC_DESIGN_PERSON_AND_ORGANIZATION_ASSIGNMENT ( #106, #216, ( #121 ) ) ;
#78 = EDGE_LOOP ( 'NONE', ( #135, #128, #225, #109 ) ) ;
#79 = PERSON_AND_ORGANIZATION ( #211, #178 ) ;
#80 = EDGE_CURVE ( 'NONE', #36, #103, #189, .T. ) ;
#81 = DIRECTION ( 'NONE',  ( -0.0000000000000000000, -0.0000000000000000000, -1.000000000000000000 ) ) ;
#82 = ADVANCED_FACE ( 'NONE', ( #171 ), #165, .F. ) ;
#83 = APPROVAL_ROLE ( '' ) ;
#84 = APPROVAL_STATUS ( 'not_yet_approved' ) ;
#85 = EDGE_LOOP ( 'NONE', ( #76, #70, #39, #144 ) ) ;
#86 = DATE_AND_TIME ( #175, #228 ) ;
#87 = EDGE_CURVE ( 'NONE', #136, #237, #158, .T. ) ;
#88 = CALENDAR_DATE ( 2020, 19, 10 ) ;
#89 = LOCAL_TIME ( 11, 32, 55.00000000000000000, #193 ) ;
#90 = VECTOR ( 'NONE', #29, 1000.000000000000000 ) ;
#91 = CC_DESIGN_SECURITY_CLASSIFICATION ( #200, ( #208 ) ) ;
#92 = ADVANCED_FACE ( 'NONE', ( #176 ), #202, .F. ) ;
#93 = APPROVAL_DATE_TIME ( #40, #69 ) ;
#94 = LINE ( 'NONE', #187, #146 ) ;
#95 = CC_DESIGN_APPROVAL ( #134, ( #121 ) ) ;
#96 = DATE_TIME_ROLE ( 'creation_date' ) ;
#97 =( NAMED_UNIT ( * ) PLANE_ANGLE_UNIT ( ) SI_UNIT ( $, .RADIAN. ) );
#98 = CARTESIAN_POINT ( 'NONE',  ( 25.00000000000000000, -12.49999999999999822, 3.000000000000000000 ) ) ;
#99 = APPROVAL_ROLE ( '' ) ;
#100 = PERSON_AND_ORGANIZATION ( #211, #178 ) ;
#101 = DIRECTION ( 'NONE',  ( 0.0000000000000000000, -0.0000000000000000000, 1.000000000000000000 ) ) ;
#102 = CARTESIAN_POINT ( 'NONE',  ( -25.00000000000000000, 12.50000000000000000, 3.000000000000000000 ) ) ;
#103 = VERTEX_POINT ( 'NONE', #145 ) ;
#104 = DIRECTION ( 'NONE',  ( -0.0000000000000000000, -1.000000000000000000, -0.0000000000000000000 ) ) ;
#105 = VECTOR ( 'NONE', #230, 1000.000000000000000 ) ;
#106 = PERSON_AND_ORGANIZATION ( #211, #178 ) ;
#107 = AXIS2_PLACEMENT_3D ( 'NONE', #163, #231, #63 ) ;
#108 = ORIENTED_EDGE ( 'NONE', *, *, #130, .T. ) ;
#109 = ORIENTED_EDGE ( 'NONE', *, *, #149, .T. ) ;
#110 = VECTOR ( 'NONE', #218, 1000.000000000000000 ) ;
#111 = CC_DESIGN_APPROVAL ( #151, ( #208 ) ) ;
#112 = ORIENTED_EDGE ( 'NONE', *, *, #62, .F. ) ;
#113 = EDGE_CURVE ( 'NONE', #73, #237, #220, .T. ) ;
#114 = LINE ( 'NONE', #115, #71 ) ;
#115 = CARTESIAN_POINT ( 'NONE',  ( -25.00000000000000000, -12.50000000000000000, -3.000000000000000000 ) ) ;
#116 = CARTESIAN_POINT ( 'NONE',  ( 24.99999999999999645, 12.50000000000000533, 3.000000000000000000 ) ) ;
#117 = APPROVAL_STATUS ( 'not_yet_approved' ) ;
#118 = CARTESIAN_POINT ( 'NONE',  ( 25.00000000000000000, -12.49999999999999822, 3.000000000000000000 ) ) ;
#119 = ADVANCED_FACE ( 'NONE', ( #125 ), #27, .T. ) ;
#120 = PERSON_AND_ORGANIZATION_ROLE ( 'classification_officer' ) ;
#121 = PRODUCT_DEFINITION ( 'UNKNOWN', '', #208, #53 ) ;
#122 = DIRECTION ( 'NONE',  ( -3.469446951953613573E-17, 1.000000000000000000, 0.0000000000000000000 ) ) ;
#123 = ORIENTED_EDGE ( 'NONE', *, *, #149, .F. ) ;
#124 = DIRECTION ( 'NONE',  ( -1.000000000000000000, -3.469446951953613573E-17, 0.0000000000000000000 ) ) ;
#125 = FACE_OUTER_BOUND ( 'NONE', #157, .T. ) ;
#126 = CC_DESIGN_DATE_AND_TIME_ASSIGNMENT ( #86, #182, ( #200 ) ) ;
#127 = DATE_AND_TIME ( #192, #236 ) ;
#128 = ORIENTED_EDGE ( 'NONE', *, *, #221, .F. ) ;
#129 = ORIENTED_EDGE ( 'NONE', *, *, #4, .T. ) ;
#130 = EDGE_CURVE ( 'NONE', #237, #36, #114, .T. ) ;
#131 = ADVANCED_FACE ( 'NONE', ( #212 ), #137, .F. ) ;
#132 = AXIS2_PLACEMENT_3D ( 'NONE', #147, #101, #65 ) ;
#133 = UNCERTAINTY_MEASURE_WITH_UNIT (LENGTH_MEASURE( 1.000000000000000082E-05 ), #197, 'distance_accuracy_value', 'NONE');
#134 = APPROVAL ( #117, 'UNSPECIFIED' ) ;
#135 = ORIENTED_EDGE ( 'NONE', *, *, #80, .T. ) ;
#136 = VERTEX_POINT ( 'NONE', #214 ) ;
#137 = PLANE ( 'NONE',  #24 ) ;
#138 = PRODUCT_RELATED_PRODUCT_CATEGORY ( 'detail', '', ( #226 ) ) ;
#139 = CARTESIAN_POINT ( 'NONE',  ( 0.0000000000000000000, 0.0000000000000000000, 0.0000000000000000000 ) ) ;
#140 = CARTESIAN_POINT ( 'NONE',  ( 25.00000000000000000, -12.49999999999999822, 3.000000000000000000 ) ) ;
#141 = APPLICATION_PROTOCOL_DEFINITION ( 'international standard', 'config_control_design', 1994, #8 ) ;
#142 = COORDINATED_UNIVERSAL_TIME_OFFSET ( 5, 0, .BEHIND. ) ;
#143 = DIRECTION ( 'NONE',  ( -1.000000000000000000, -1.387778780781445429E-16, 0.0000000000000000000 ) ) ;
#144 = ORIENTED_EDGE ( 'NONE', *, *, #80, .F. ) ;
#145 = CARTESIAN_POINT ( 'NONE',  ( 25.00000000000000000, -12.49999999999999822, -3.000000000000000000 ) ) ;
#146 = VECTOR ( 'NONE', #222, 1000.000000000000000 ) ;
#147 = CARTESIAN_POINT ( 'NONE',  ( 0.0000000000000000000, 0.0000000000000000000, -3.000000000000000000 ) ) ;
#148 = EDGE_LOOP ( 'NONE', ( #60, #30, #227, #224 ) ) ;
#149 = EDGE_CURVE ( 'NONE', #166, #36, #18, .T. ) ;
#150 = PERSON_AND_ORGANIZATION ( #211, #178 ) ;
#151 = APPROVAL ( #161, 'UNSPECIFIED' ) ;
#152 = VECTOR ( 'NONE', #68, 1000.000000000000000 ) ;
#153 = PERSON_AND_ORGANIZATION ( #211, #178 ) ;
#154 = ADVANCED_BREP_SHAPE_REPRESENTATION ( 'Web Model 15741_15743', ( #196, #37 ), #31 ) ;
#155 = VECTOR ( 'NONE', #48, 1000.000000000000000 ) ;
#156 = CC_DESIGN_PERSON_AND_ORGANIZATION_ASSIGNMENT ( #79, #120, ( #200 ) ) ;
#157 = EDGE_LOOP ( 'NONE', ( #195, #20, #194, #14 ) ) ;
#158 = LINE ( 'NONE', #102, #110 ) ;
#159 = CARTESIAN_POINT ( 'NONE',  ( 25.00000000000000000, -12.49999999999999822, 3.000000000000000000 ) ) ;
#160 = CARTESIAN_POINT ( 'NONE',  ( -25.00000000000000000, -12.50000000000000000, 3.000000000000000000 ) ) ;
#161 = APPROVAL_STATUS ( 'not_yet_approved' ) ;
#162 = CARTESIAN_POINT ( 'NONE',  ( -25.00000000000000000, 12.50000000000000000, -3.000000000000000000 ) ) ;
#163 = CARTESIAN_POINT ( 'NONE',  ( 0.0000000000000000000, 0.0000000000000000000, 3.000000000000000000 ) ) ;
#164 = CC_DESIGN_PERSON_AND_ORGANIZATION_ASSIGNMENT ( #153, #232, ( #226 ) ) ;
#165 = PLANE ( 'NONE',  #44 ) ;
#166 = VERTEX_POINT ( 'NONE', #160 ) ;
#167 = VECTOR ( 'NONE', #233, 1000.000000000000000 ) ;
#168 = AXIS2_PLACEMENT_3D ( 'NONE', #34, #52, #188 ) ;
#169 = LOCAL_TIME ( 11, 32, 55.00000000000000000, #215 ) ;
#170 = CC_DESIGN_PERSON_AND_ORGANIZATION_ASSIGNMENT ( #100, #9, ( #208 ) ) ;
#171 = FACE_OUTER_BOUND ( 'NONE', #78, .T. ) ;
#172 = APPROVAL_PERSON_ORGANIZATION ( #223, #151, #45 ) ;
#173 = CC_DESIGN_APPROVAL ( #69, ( #200 ) ) ;
#174 = VERTEX_POINT ( 'NONE', #217 ) ;
#175 = CALENDAR_DATE ( 2020, 19, 10 ) ;
#176 = FACE_OUTER_BOUND ( 'NONE', #85, .T. ) ;
#177 = DIRECTION ( 'NONE',  ( 0.0000000000000000000, 0.0000000000000000000, 1.000000000000000000 ) ) ;
#178 = ORGANIZATION ( 'UNSPECIFIED', 'UNSPECIFIED', '' ) ;
#179 = DIRECTION ( 'NONE',  ( 1.000000000000000000, 0.0000000000000000000, 0.0000000000000000000 ) ) ;
#180 = CARTESIAN_POINT ( 'NONE',  ( 25.00000000000000000, -12.49999999999999822, 3.000000000000000000 ) ) ;
#181 = PRODUCT_DEFINITION_SHAPE ( 'NONE', 'NONE',  #121 ) ;
#182 = DATE_TIME_ROLE ( 'classification_date' ) ;
#183 = ORIENTED_EDGE ( 'NONE', *, *, #221, .T. ) ;
#184 = APPLICATION_CONTEXT ( 'configuration controlled 3d designs of mechanical parts and assemblies' ) ;
#185 = EDGE_LOOP ( 'NONE', ( #129, #112, #56, #183 ) ) ;
#186 = APPROVAL_PERSON_ORGANIZATION ( #2, #69, #99 ) ;
#187 = CARTESIAN_POINT ( 'NONE',  ( 25.00000000000000000, -12.49999999999999822, -3.000000000000000000 ) ) ;
#188 = DIRECTION ( 'NONE',  ( 1.000000000000000000, 1.040834085586084133E-16, 0.0000000000000000000 ) ) ;
#189 = LINE ( 'NONE', #13, #167 ) ;
#190 = VECTOR ( 'NONE', #205, 1000.000000000000000 ) ;
#191 = EDGE_CURVE ( 'NONE', #174, #136, #61, .T. ) ;
#192 = CALENDAR_DATE ( 2020, 19, 10 ) ;
#193 = COORDINATED_UNIVERSAL_TIME_OFFSET ( 5, 0, .BEHIND. ) ;
#194 = ORIENTED_EDGE ( 'NONE', *, *, #35, .T. ) ;
#195 = ORIENTED_EDGE ( 'NONE', *, *, #1, .T. ) ;
#196 = MANIFOLD_SOLID_BREP ( 'Boss-Extrude1', #21 ) ;
#197 =( LENGTH_UNIT ( ) NAMED_UNIT ( * ) SI_UNIT ( .MILLI., .METRE. ) );
#198 = CALENDAR_DATE ( 2020, 19, 10 ) ;
#199 = DIRECTION ( 'NONE',  ( -0.0000000000000000000, -1.000000000000000000, -0.0000000000000000000 ) ) ;
#200 = SECURITY_CLASSIFICATION ( '', '', #28 ) ;
#201 = LINE ( 'NONE', #98, #90 ) ;
#202 = PLANE ( 'NONE',  #132 ) ;
#203 = CARTESIAN_POINT ( 'NONE',  ( -25.00000000000000000, -12.50000000000000000, 3.000000000000000000 ) ) ;
#204 = ORIENTED_EDGE ( 'NONE', *, *, #87, .T. ) ;
#205 = DIRECTION ( 'NONE',  ( -1.387778780781445429E-16, 1.000000000000000000, 0.0000000000000000000 ) ) ;
#206 = APPROVAL_DATE_TIME ( #127, #134 ) ;
#207 = FACE_OUTER_BOUND ( 'NONE', #185, .T. ) ;
#208 = PRODUCT_DEFINITION_FORMATION_WITH_SPECIFIED_SOURCE ( 'ANY', '', #226, .NOT_KNOWN. ) ;
#209 = PERSON_AND_ORGANIZATION ( #211, #178 ) ;
#210 = VECTOR ( 'NONE', #81, 1000.000000000000000 ) ;
#211 = PERSON ( 'UNSPECIFIED', 'UNSPECIFIED', 'UNSPECIFIED', ('UNSPECIFIED'), ('UNSPECIFIED'), ('UNSPECIFIED') ) ;
#212 = FACE_OUTER_BOUND ( 'NONE', #219, .T. ) ;
#213 = VERTEX_POINT ( 'NONE', #140 ) ;
#214 = CARTESIAN_POINT ( 'NONE',  ( -25.00000000000000000, 12.50000000000000000, 3.000000000000000000 ) ) ;
#215 = COORDINATED_UNIVERSAL_TIME_OFFSET ( 5, 0, .BEHIND. ) ;
#216 = PERSON_AND_ORGANIZATION_ROLE ( 'creator' ) ;
#217 = CARTESIAN_POINT ( 'NONE',  ( 24.99999999999999645, 12.50000000000000533, 3.000000000000000000 ) ) ;
#218 = DIRECTION ( 'NONE',  ( -0.0000000000000000000, -0.0000000000000000000, -1.000000000000000000 ) ) ;
#219 = EDGE_LOOP ( 'NONE', ( #108, #123, #74, #204 ) ) ;
#220 = LINE ( 'NONE', #42, #105 ) ;
#221 = EDGE_CURVE ( 'NONE', #213, #103, #75, .T. ) ;
#222 = DIRECTION ( 'NONE',  ( -1.387778780781445429E-16, 1.000000000000000000, 0.0000000000000000000 ) ) ;
#223 = PERSON_AND_ORGANIZATION ( #211, #178 ) ;
#224 = ORIENTED_EDGE ( 'NONE', *, *, #62, .T. ) ;
#225 = ORIENTED_EDGE ( 'NONE', *, *, #51, .F. ) ;
#226 = PRODUCT ( 'Web Model 15741_15743', 'Web Model 15741_15743', '', ( #47 ) ) ;
#227 = ORIENTED_EDGE ( 'NONE', *, *, #191, .F. ) ;
#228 = LOCAL_TIME ( 11, 32, 55.00000000000000000, #54 ) ;
#229 = CARTESIAN_POINT ( 'NONE',  ( -25.00000000000000000, -12.50000000000000000, 3.000000000000000000 ) ) ;
#230 = DIRECTION ( 'NONE',  ( -1.000000000000000000, -1.040834085586084257E-16, 0.0000000000000000000 ) ) ;
#231 = DIRECTION ( 'NONE',  ( 0.0000000000000000000, -0.0000000000000000000, 1.000000000000000000 ) ) ;
#232 = PERSON_AND_ORGANIZATION_ROLE ( 'design_owner' ) ;
#233 = DIRECTION ( 'NONE',  ( 1.000000000000000000, 3.469446951953614189E-17, -0.0000000000000000000 ) ) ;
#234 = VECTOR ( 'NONE', #104, 1000.000000000000000 ) ;
#235 = PLANE ( 'NONE',  #168 ) ;
#236 = LOCAL_TIME ( 11, 32, 55.00000000000000000, #46 ) ;
#237 = VERTEX_POINT ( 'NONE', #162 ) ;
ENDSEC;
END-ISO-10303-21;
