ISO-10303-21;
HEADER;
FILE_DESCRIPTION (( 'STEP AP203' ),
    '1' );
FILE_NAME ('Web Model 11857_11857.step',
    '2019-01-10T19:38:31',
    ( '' ),
    ( '' ),
    'SwSTEP 2.0',
    'SolidWorks 2016',
    '' );
FILE_SCHEMA (( 'CONFIG_CONTROL_DESIGN' ));
ENDSEC;

DATA;
#1 = DIRECTION ( 'NONE',  ( 0.0000000000000000000, 0.0000000000000000000, 1.000000000000000000 ) ) ;
#2 = CONICAL_SURFACE ( 'NONE', #124, 62.24999999999994300, 0.7853981633974344000 ) ;
#3 = PERSON_AND_ORGANIZATION ( #236, #112 ) ;
#4 = UNCERTAINTY_MEASURE_WITH_UNIT (LENGTH_MEASURE( 1.000000000000000100E-005 ), #16, 'distance_accuracy_value', 'NONE');
#5 = DIRECTION ( 'NONE',  ( 0.0000000000000000000, 0.0000000000000000000, -1.000000000000000000 ) ) ;
#6 = LOCAL_TIME ( 14, 38, 31.00000000000000000, #111 ) ;
#7 = AXIS2_PLACEMENT_3D ( 'NONE', #171, #39, #237 ) ;
#8 = CARTESIAN_POINT ( 'NONE',  ( 4.000000000000000000, 0.0000000000000000000, 0.0000000000000000000 ) ) ;
#9 = CONICAL_SURFACE ( 'NONE', #162, 62.50000000000000000, 0.7853981633974621600 ) ;
#10 = CARTESIAN_POINT ( 'NONE',  ( 3.749999999999937400, 7.654042494670957800E-015, -62.50000000000000000 ) ) ;
#11 = DIRECTION ( 'NONE',  ( 1.000000000000000000, 0.0000000000000000000, 0.0000000000000000000 ) ) ;
#12 = PERSON_AND_ORGANIZATION ( #236, #112 ) ;
#13 = DATE_AND_TIME ( #123, #38 ) ;
#14 = ADVANCED_FACE ( 'NONE', ( #213 ), #19, .T. ) ;
#15 = CYLINDRICAL_SURFACE ( 'NONE', #215, 62.50000000000000000 ) ;
#16 =( LENGTH_UNIT ( ) NAMED_UNIT ( * ) SI_UNIT ( .MILLI., .METRE. ) );
#17 = PERSON_AND_ORGANIZATION_ROLE ( 'design_supplier' ) ;
#18 =( NAMED_UNIT ( * ) PLANE_ANGLE_UNIT ( ) SI_UNIT ( $, .RADIAN. ) );
#19 = CONICAL_SURFACE ( 'NONE', #165, 62.50000000000000000, 0.7853981633974621600 ) ;
#20 = PERSON_AND_ORGANIZATION_ROLE ( 'design_owner' ) ;
#21 = DIRECTION ( 'NONE',  ( 0.0000000000000000000, 0.0000000000000000000, -1.000000000000000000 ) ) ;
#22 = FACE_OUTER_BOUND ( 'NONE', #157, .T. ) ;
#23 = CARTESIAN_POINT ( 'NONE',  ( 4.000000000000000000, 7.654042494670957800E-015, -62.50000000000000000 ) ) ;
#24 = LINE ( 'NONE', #45, #64 ) ;
#25 = ORIENTED_EDGE ( 'NONE', *, *, #155, .T. ) ;
#26 = PERSON_AND_ORGANIZATION ( #236, #112 ) ;
#27 = DIRECTION ( 'NONE',  ( 0.0000000000000000000, 0.0000000000000000000, 1.000000000000000000 ) ) ;
#28 = DIRECTION ( 'NONE',  ( 0.0000000000000000000, 0.0000000000000000000, 1.000000000000000000 ) ) ;
#29 = EDGE_LOOP ( 'NONE', ( #270, #201, #240, #193 ) ) ;
#30 = DIRECTION ( 'NONE',  ( 1.000000000000000000, -0.0000000000000000000, -0.0000000000000000000 ) ) ;
#31 = ORIENTED_EDGE ( 'NONE', *, *, #35, .T. ) ;
#32 = DATE_AND_TIME ( #161, #164 ) ;
#33 = CC_DESIGN_PERSON_AND_ORGANIZATION_ASSIGNMENT ( #26, #95, ( #252 ) ) ;
#34 = FACE_OUTER_BOUND ( 'NONE', #43, .T. ) ;
#35 = EDGE_CURVE ( 'NONE', #37, #133, #75, .T. ) ;
#36 = PERSON_AND_ORGANIZATION_ROLE ( 'classification_officer' ) ;
#37 = VERTEX_POINT ( 'NONE', #174 ) ;
#38 = LOCAL_TIME ( 14, 38, 31.00000000000000000, #238 ) ;
#39 = DIRECTION ( 'NONE',  ( 1.000000000000000000, -0.0000000000000000000, -0.0000000000000000000 ) ) ;
#40 = APPROVAL_STATUS ( 'not_yet_approved' ) ;
#41 = LINE ( 'NONE', #258, #211 ) ;
#42 = EDGE_CURVE ( 'NONE', #133, #37, #70, .T. ) ;
#43 = EDGE_LOOP ( 'NONE', ( #259, #69, #170, #93 ) ) ;
#44 = DIRECTION ( 'NONE',  ( -1.000000000000000000, 0.0000000000000000000, 0.0000000000000000000 ) ) ;
#45 = CARTESIAN_POINT ( 'NONE',  ( -3.750000000000006700, 0.0000000000000000000, -62.50000000000000000 ) ) ;
#46 = CC_DESIGN_DATE_AND_TIME_ASSIGNMENT ( #13, #233, ( #252 ) ) ;
#47 = DIRECTION ( 'NONE',  ( 0.0000000000000000000, 0.0000000000000000000, -1.000000000000000000 ) ) ;
#48 = ORIENTED_EDGE ( 'NONE', *, *, #253, .T. ) ;
#49 = CARTESIAN_POINT ( 'NONE',  ( -4.000000000000000000, 0.0000000000000000000, 0.0000000000000000000 ) ) ;
#50 = VECTOR ( 'NONE', #67, 999.9999999999998900 ) ;
#51 = AXIS2_PLACEMENT_3D ( 'NONE', #177, #87, #47 ) ;
#52 = CC_DESIGN_APPROVAL ( #269, ( #252 ) ) ;
#53 = CARTESIAN_POINT ( 'NONE',  ( 4.000000000000000000, 0.0000000000000000000, 0.0000000000000000000 ) ) ;
#54 = EDGE_CURVE ( 'NONE', #60, #216, #247, .T. ) ;
#55 = ORIENTED_EDGE ( 'NONE', *, *, #94, .T. ) ;
#56 = CONICAL_SURFACE ( 'NONE', #184, 62.24999999999994300, 0.7853981633974344000 ) ;
#57 = APPROVAL_PERSON_ORGANIZATION ( #231, #269, #99 ) ;
#58 = EDGE_CURVE ( 'NONE', #216, #77, #24, .T. ) ;
#59 = PRODUCT_DEFINITION_FORMATION_WITH_SPECIFIED_SOURCE ( 'ANY', '', #78, .NOT_KNOWN. ) ;
#60 = VERTEX_POINT ( 'NONE', #81 ) ;
#61 = CARTESIAN_POINT ( 'NONE',  ( 4.000000000000000000, 0.0000000000000000000, 62.50000000000000000 ) ) ;
#62 = APPROVAL ( #76, 'UNSPECIFIED' ) ;
#63 = CARTESIAN_POINT ( 'NONE',  ( 4.000000000000000000, 0.0000000000000000000, 0.0000000000000000000 ) ) ;
#64 = VECTOR ( 'NONE', #226, 1000.000000000000000 ) ;
#65 = ORIENTED_EDGE ( 'NONE', *, *, #272, .T. ) ;
#66 = DIRECTION ( 'NONE',  ( -1.000000000000000000, -0.0000000000000000000, -0.0000000000000000000 ) ) ;
#67 = DIRECTION ( 'NONE',  ( -0.7071067811865574500, 0.0000000000000000000, 0.7071067811865376900 ) ) ;
#68 = AXIS2_PLACEMENT_3D ( 'NONE', #224, #103, #156 ) ;
#69 = ORIENTED_EDGE ( 'NONE', *, *, #155, .F. ) ;
#70 = CIRCLE ( 'NONE', #256, 62.50000000000000000 ) ;
#71 = ADVANCED_FACE ( 'NONE', ( #121 ), #56, .T. ) ;
#72 = CIRCLE ( 'NONE', #239, 62.24999999999994300 ) ;
#73 = APPROVAL_PERSON_ORGANIZATION ( #131, #62, #189 ) ;
#74 = MECHANICAL_CONTEXT ( 'NONE', #274, 'mechanical' ) ;
#75 = CIRCLE ( 'NONE', #135, 62.50000000000000000 ) ;
#76 = APPROVAL_STATUS ( 'not_yet_approved' ) ;
#77 = VERTEX_POINT ( 'NONE', #200 ) ;
#78 = PRODUCT ( 'Web Model 11857_11857', 'Web Model 11857_11857', '', ( #74 ) ) ;
#79 = LINE ( 'NONE', #23, #205 ) ;
#80 = CC_DESIGN_APPROVAL ( #219, ( #59 ) ) ;
#81 = CARTESIAN_POINT ( 'NONE',  ( -4.000000000000000000, 7.638734409681615900E-015, 62.25000000000000000 ) ) ;
#82 = VERTEX_POINT ( 'NONE', #127 ) ;
#83 = CALENDAR_DATE ( 2019, 10, 1 ) ;
#84 = DIRECTION ( 'NONE',  ( -1.000000000000000000, -0.0000000000000000000, -0.0000000000000000000 ) ) ;
#85 = EDGE_LOOP ( 'NONE', ( #31, #208, #65, #185 ) ) ;
#86 = LOCAL_TIME ( 14, 38, 31.00000000000000000, #235 ) ;
#87 = DIRECTION ( 'NONE',  ( -1.000000000000000000, -0.0000000000000000000, -0.0000000000000000000 ) ) ;
#88 = CARTESIAN_POINT ( 'NONE',  ( 4.000000000000000000, 0.0000000000000000000, 62.24999999999994300 ) ) ;
#89 = DIRECTION ( 'NONE',  ( 1.000000000000000000, -0.0000000000000000000, -0.0000000000000000000 ) ) ;
#90 = LINE ( 'NONE', #182, #255 ) ;
#91 = PLANE ( 'NONE',  #152 ) ;
#92 = CARTESIAN_POINT ( 'NONE',  ( -3.750000000000006700, 0.0000000000000000000, 62.50000000000000000 ) ) ;
#93 = ORIENTED_EDGE ( 'NONE', *, *, #42, .F. ) ;
#94 = EDGE_CURVE ( 'NONE', #216, #60, #179, .T. ) ;
#95 = PERSON_AND_ORGANIZATION_ROLE ( 'creator' ) ;
#96 = ORIENTED_EDGE ( 'NONE', *, *, #106, .T. ) ;
#97 = EDGE_CURVE ( 'NONE', #225, #77, #264, .T. ) ;
#98 = ORIENTED_EDGE ( 'NONE', *, *, #58, .F. ) ;
#99 = APPROVAL_ROLE ( '' ) ;
#100 = FACE_OUTER_BOUND ( 'NONE', #134, .T. ) ;
#101 = CC_DESIGN_PERSON_AND_ORGANIZATION_ASSIGNMENT ( #12, #17, ( #59 ) ) ;
#102 = CARTESIAN_POINT ( 'NONE',  ( 3.749999999999937400, 0.0000000000000000000, 0.0000000000000000000 ) ) ;
#103 = DIRECTION ( 'NONE',  ( 1.000000000000000000, 0.0000000000000000000, 0.0000000000000000000 ) ) ;
#104 = DIRECTION ( 'NONE',  ( 1.000000000000000000, 0.0000000000000000000, 0.0000000000000000000 ) ) ;
#105 = CARTESIAN_POINT ( 'NONE',  ( 4.000000000000000000, 0.0000000000000000000, 0.0000000000000000000 ) ) ;
#106 = EDGE_CURVE ( 'NONE', #82, #194, #72, .T. ) ;
#107 = ORIENTED_EDGE ( 'NONE', *, *, #35, .F. ) ;
#108 = DIRECTION ( 'NONE',  ( 0.0000000000000000000, 0.0000000000000000000, 1.000000000000000000 ) ) ;
#109 = PRODUCT_DEFINITION_SHAPE ( 'NONE', 'NONE',  #252 ) ;
#110 = CC_DESIGN_DATE_AND_TIME_ASSIGNMENT ( #146, #136, ( #118 ) ) ;
#111 = COORDINATED_UNIVERSAL_TIME_OFFSET ( 5, 0, .BEHIND. ) ;
#112 = ORGANIZATION ( 'UNSPECIFIED', 'UNSPECIFIED', '' ) ;
#113 = AXIS2_PLACEMENT_3D ( 'NONE', #8, #104, #154 ) ;
#114 = ADVANCED_FACE ( 'NONE', ( #22 ), #262, .T. ) ;
#115 = ADVANCED_BREP_SHAPE_REPRESENTATION ( 'Web Model 11857_11857', ( #169, #181 ), #190 ) ;
#116 = FACE_OUTER_BOUND ( 'NONE', #85, .T. ) ;
#117 = DATE_AND_TIME ( #180, #86 ) ;
#118 = SECURITY_CLASSIFICATION ( '', '', #143 ) ;
#119 = ADVANCED_FACE ( 'NONE', ( #116 ), #172, .T. ) ;
#120 = APPROVAL_PERSON_ORGANIZATION ( #183, #219, #167 ) ;
#121 = FACE_OUTER_BOUND ( 'NONE', #151, .T. ) ;
#122 = ORIENTED_EDGE ( 'NONE', *, *, #191, .T. ) ;
#123 = CALENDAR_DATE ( 2019, 10, 1 ) ;
#124 = AXIS2_PLACEMENT_3D ( 'NONE', #178, #203, #108 ) ;
#125 = ORIENTED_EDGE ( 'NONE', *, *, #54, .T. ) ;
#126 = ORIENTED_EDGE ( 'NONE', *, *, #106, .F. ) ;
#127 = CARTESIAN_POINT ( 'NONE',  ( 4.000000000000000000, 7.638734409681612800E-015, -62.24999999999994300 ) ) ;
#128 = DIRECTION ( 'NONE',  ( 0.0000000000000000000, 0.0000000000000000000, -1.000000000000000000 ) ) ;
#129 = DIRECTION ( 'NONE',  ( 1.000000000000000000, 0.0000000000000000000, 0.0000000000000000000 ) ) ;
#130 = LINE ( 'NONE', #61, #158 ) ;
#131 = PERSON_AND_ORGANIZATION ( #236, #112 ) ;
#132 = EDGE_CURVE ( 'NONE', #133, #77, #79, .T. ) ;
#133 = VERTEX_POINT ( 'NONE', #10 ) ;
#134 = EDGE_LOOP ( 'NONE', ( #55, #125 ) ) ;
#135 = AXIS2_PLACEMENT_3D ( 'NONE', #102, #257, #5 ) ;
#136 = DATE_TIME_ROLE ( 'classification_date' ) ;
#137 = ORIENTED_EDGE ( 'NONE', *, *, #212, .T. ) ;
#138 = DESIGN_CONTEXT ( 'detailed design', #273, 'design' ) ;
#139 = AXIS2_PLACEMENT_3D ( 'NONE', #222, #66, #27 ) ;
#140 = APPLICATION_PROTOCOL_DEFINITION ( 'international standard', 'config_control_design', 1994, #274 ) ;
#141 = PERSON_AND_ORGANIZATION ( #236, #112 ) ;
#142 = ORIENTED_EDGE ( 'NONE', *, *, #54, .F. ) ;
#143 = SECURITY_CLASSIFICATION_LEVEL ( 'unclassified' ) ;
#144 = CARTESIAN_POINT ( 'NONE',  ( -3.750000000000006700, 0.0000000000000000000, 0.0000000000000000000 ) ) ;
#145 = FACE_OUTER_BOUND ( 'NONE', #29, .T. ) ;
#146 = DATE_AND_TIME ( #83, #6 ) ;
#147 = CC_DESIGN_PERSON_AND_ORGANIZATION_ASSIGNMENT ( #141, #36, ( #118 ) ) ;
#148 = EDGE_CURVE ( 'NONE', #194, #37, #198, .T. ) ;
#149 = CARTESIAN_POINT ( 'NONE',  ( 4.000000000000000000, 0.0000000000000000000, 62.24999999999994300 ) ) ;
#150 = DIRECTION ( 'NONE',  ( 0.0000000000000000000, 0.0000000000000000000, 1.000000000000000000 ) ) ;
#151 = EDGE_LOOP ( 'NONE', ( #126, #48, #107, #242 ) ) ;
#152 = AXIS2_PLACEMENT_3D ( 'NONE', #204, #11, #159 ) ;
#153 = DIRECTION ( 'NONE',  ( 0.0000000000000000000, 0.0000000000000000000, -1.000000000000000000 ) ) ;
#154 = DIRECTION ( 'NONE',  ( 0.0000000000000000000, 0.0000000000000000000, -1.000000000000000000 ) ) ;
#155 = EDGE_CURVE ( 'NONE', #194, #82, #234, .T. ) ;
#156 = DIRECTION ( 'NONE',  ( 0.0000000000000000000, 0.0000000000000000000, -1.000000000000000000 ) ) ;
#157 = EDGE_LOOP ( 'NONE', ( #25, #96 ) ) ;
#158 = VECTOR ( 'NONE', #220, 1000.000000000000000 ) ;
#159 = DIRECTION ( 'NONE',  ( 0.0000000000000000000, 0.0000000000000000000, -1.000000000000000000 ) ) ;
#160 = DIRECTION ( 'NONE',  ( 0.0000000000000000000, 0.0000000000000000000, -1.000000000000000000 ) ) ;
#161 = CALENDAR_DATE ( 2019, 10, 1 ) ;
#162 = AXIS2_PLACEMENT_3D ( 'NONE', #268, #30, #160 ) ;
#163 = EDGE_LOOP ( 'NONE', ( #142, #137, #249, #98 ) ) ;
#164 = LOCAL_TIME ( 14, 38, 31.00000000000000000, #195 ) ;
#165 = AXIS2_PLACEMENT_3D ( 'NONE', #144, #218, #21 ) ;
#166 = PERSON_AND_ORGANIZATION_ROLE ( 'creator' ) ;
#167 = APPROVAL_ROLE ( '' ) ;
#168 =( NAMED_UNIT ( * ) SI_UNIT ( $, .STERADIAN. ) SOLID_ANGLE_UNIT ( ) );
#169 = MANIFOLD_SOLID_BREP ( 'Chamfer1', #202 ) ;
#170 = ORIENTED_EDGE ( 'NONE', *, *, #148, .T. ) ;
#171 = CARTESIAN_POINT ( 'NONE',  ( -3.750000000000006700, 0.0000000000000000000, 0.0000000000000000000 ) ) ;
#172 = CYLINDRICAL_SURFACE ( 'NONE', #139, 62.50000000000000000 ) ;
#173 = APPROVAL_DATE_TIME ( #117, #219 ) ;
#174 = CARTESIAN_POINT ( 'NONE',  ( 3.749999999999937400, 0.0000000000000000000, 62.50000000000000000 ) ) ;
#175 = CC_DESIGN_APPROVAL ( #62, ( #118 ) ) ;
#176 = CARTESIAN_POINT ( 'NONE',  ( -3.750000000000006700, 0.0000000000000000000, 0.0000000000000000000 ) ) ;
#177 = CARTESIAN_POINT ( 'NONE',  ( -4.000000000000000000, 0.0000000000000000000, 0.0000000000000000000 ) ) ;
#178 = CARTESIAN_POINT ( 'NONE',  ( 4.000000000000000000, 0.0000000000000000000, 0.0000000000000000000 ) ) ;
#179 = CIRCLE ( 'NONE', #199, 62.25000000000000000 ) ;
#180 = CALENDAR_DATE ( 2019, 10, 1 ) ;
#181 = AXIS2_PLACEMENT_3D ( 'NONE', #192, #1, #254 ) ;
#182 = CARTESIAN_POINT ( 'NONE',  ( 4.000000000000000000, 7.623426324692267700E-015, -62.24999999999994300 ) ) ;
#183 = PERSON_AND_ORGANIZATION ( #236, #112 ) ;
#184 = AXIS2_PLACEMENT_3D ( 'NONE', #63, #44, #150 ) ;
#185 = ORIENTED_EDGE ( 'NONE', *, *, #191, .F. ) ;
#186 = ORIENTED_EDGE ( 'NONE', *, *, #42, .T. ) ;
#187 = ADVANCED_FACE ( 'NONE', ( #34 ), #2, .T. ) ;
#188 = LOCAL_TIME ( 14, 38, 31.00000000000000000, #229 ) ;
#189 = APPROVAL_ROLE ( '' ) ;
#190 =( GEOMETRIC_REPRESENTATION_CONTEXT ( 3 ) GLOBAL_UNCERTAINTY_ASSIGNED_CONTEXT ( ( #4 ) ) GLOBAL_UNIT_ASSIGNED_CONTEXT ( ( #16, #18, #168 ) ) REPRESENTATION_CONTEXT ( 'NONE', 'WORKASPACE' ) );
#191 = EDGE_CURVE ( 'NONE', #37, #225, #130, .T. ) ;
#192 = CARTESIAN_POINT ( 'NONE',  ( 0.0000000000000000000, 0.0000000000000000000, 0.0000000000000000000 ) ) ;
#193 = ORIENTED_EDGE ( 'NONE', *, *, #97, .F. ) ;
#194 = VERTEX_POINT ( 'NONE', #149 ) ;
#195 = COORDINATED_UNIVERSAL_TIME_OFFSET ( 5, 0, .BEHIND. ) ;
#196 = APPLICATION_PROTOCOL_DEFINITION ( 'international standard', 'config_control_design', 1994, #273 ) ;
#197 = CC_DESIGN_SECURITY_CLASSIFICATION ( #118, ( #59 ) ) ;
#198 = LINE ( 'NONE', #88, #50 ) ;
#199 = AXIS2_PLACEMENT_3D ( 'NONE', #49, #84, #128 ) ;
#200 = CARTESIAN_POINT ( 'NONE',  ( -3.750000000000006700, 7.654042494670957800E-015, -62.50000000000000000 ) ) ;
#201 = ORIENTED_EDGE ( 'NONE', *, *, #94, .F. ) ;
#202 = CLOSED_SHELL ( 'NONE', ( #71, #14, #119, #271, #114, #267, #250, #187 ) ) ;
#203 = DIRECTION ( 'NONE',  ( -1.000000000000000000, 0.0000000000000000000, 0.0000000000000000000 ) ) ;
#204 = CARTESIAN_POINT ( 'NONE',  ( -4.000000000000000000, 0.0000000000000000000, 0.0000000000000000000 ) ) ;
#205 = VECTOR ( 'NONE', #245, 1000.000000000000000 ) ;
#206 = APPROVAL_DATE_TIME ( #241, #62 ) ;
#207 = CC_DESIGN_PERSON_AND_ORGANIZATION_ASSIGNMENT ( #3, #20, ( #78 ) ) ;
#208 = ORIENTED_EDGE ( 'NONE', *, *, #132, .T. ) ;
#209 = EDGE_LOOP ( 'NONE', ( #266, #186, #122, #251 ) ) ;
#210 = DIRECTION ( 'NONE',  ( -0.7071067811865574500, 8.659560562354813300E-017, -0.7071067811865376900 ) ) ;
#211 = VECTOR ( 'NONE', #265, 1000.000000000000000 ) ;
#212 = EDGE_CURVE ( 'NONE', #60, #225, #41, .T. ) ;
#213 = FACE_OUTER_BOUND ( 'NONE', #163, .T. ) ;
#214 = APPROVAL_DATE_TIME ( #32, #269 ) ;
#215 = AXIS2_PLACEMENT_3D ( 'NONE', #53, #230, #28 ) ;
#216 = VERTEX_POINT ( 'NONE', #263 ) ;
#217 = FACE_OUTER_BOUND ( 'NONE', #209, .T. ) ;
#218 = DIRECTION ( 'NONE',  ( 1.000000000000000000, -0.0000000000000000000, -0.0000000000000000000 ) ) ;
#219 = APPROVAL ( #40, 'UNSPECIFIED' ) ;
#220 = DIRECTION ( 'NONE',  ( -1.000000000000000000, -0.0000000000000000000, -0.0000000000000000000 ) ) ;
#221 = SHAPE_DEFINITION_REPRESENTATION ( #109, #115 ) ;
#222 = CARTESIAN_POINT ( 'NONE',  ( 4.000000000000000000, 0.0000000000000000000, 0.0000000000000000000 ) ) ;
#223 = DIRECTION ( 'NONE',  ( 0.0000000000000000000, 0.0000000000000000000, -1.000000000000000000 ) ) ;
#224 = CARTESIAN_POINT ( 'NONE',  ( 4.000000000000000000, 0.0000000000000000000, 0.0000000000000000000 ) ) ;
#225 = VERTEX_POINT ( 'NONE', #92 ) ;
#226 = DIRECTION ( 'NONE',  ( 0.7071067811865378000, 0.0000000000000000000, -0.7071067811865573400 ) ) ;
#227 = PRODUCT_RELATED_PRODUCT_CATEGORY ( 'detail', '', ( #78 ) ) ;
#228 = AXIS2_PLACEMENT_3D ( 'NONE', #176, #89, #223 ) ;
#229 = COORDINATED_UNIVERSAL_TIME_OFFSET ( 5, 0, .BEHIND. ) ;
#230 = DIRECTION ( 'NONE',  ( -1.000000000000000000, -0.0000000000000000000, -0.0000000000000000000 ) ) ;
#231 = PERSON_AND_ORGANIZATION ( #236, #112 ) ;
#232 = APPROVAL_STATUS ( 'not_yet_approved' ) ;
#233 = DATE_TIME_ROLE ( 'creation_date' ) ;
#234 = CIRCLE ( 'NONE', #68, 62.24999999999994300 ) ;
#235 = COORDINATED_UNIVERSAL_TIME_OFFSET ( 5, 0, .BEHIND. ) ;
#236 = PERSON ( 'UNSPECIFIED', 'UNSPECIFIED', 'UNSPECIFIED', ('UNSPECIFIED'), ('UNSPECIFIED'), ('UNSPECIFIED') ) ;
#237 = DIRECTION ( 'NONE',  ( 0.0000000000000000000, 0.0000000000000000000, -1.000000000000000000 ) ) ;
#238 = COORDINATED_UNIVERSAL_TIME_OFFSET ( 5, 0, .BEHIND. ) ;
#239 = AXIS2_PLACEMENT_3D ( 'NONE', #105, #129, #261 ) ;
#240 = ORIENTED_EDGE ( 'NONE', *, *, #58, .T. ) ;
#241 = DATE_AND_TIME ( #275, #188 ) ;
#242 = ORIENTED_EDGE ( 'NONE', *, *, #148, .F. ) ;
#243 = CIRCLE ( 'NONE', #7, 62.50000000000000000 ) ;
#244 = CARTESIAN_POINT ( 'NONE',  ( 3.749999999999937400, 0.0000000000000000000, 0.0000000000000000000 ) ) ;
#245 = DIRECTION ( 'NONE',  ( -1.000000000000000000, -0.0000000000000000000, -0.0000000000000000000 ) ) ;
#246 = CC_DESIGN_PERSON_AND_ORGANIZATION_ASSIGNMENT ( #248, #166, ( #59 ) ) ;
#247 = CIRCLE ( 'NONE', #51, 62.25000000000000000 ) ;
#248 = PERSON_AND_ORGANIZATION ( #236, #112 ) ;
#249 = ORIENTED_EDGE ( 'NONE', *, *, #272, .F. ) ;
#250 = ADVANCED_FACE ( 'NONE', ( #145 ), #9, .T. ) ;
#251 = ORIENTED_EDGE ( 'NONE', *, *, #97, .T. ) ;
#252 = PRODUCT_DEFINITION ( 'UNKNOWN', '', #59, #138 ) ;
#253 = EDGE_CURVE ( 'NONE', #82, #133, #90, .T. ) ;
#254 = DIRECTION ( 'NONE',  ( 1.000000000000000000, 0.0000000000000000000, 0.0000000000000000000 ) ) ;
#255 = VECTOR ( 'NONE', #210, 999.9999999999998900 ) ;
#256 = AXIS2_PLACEMENT_3D ( 'NONE', #244, #260, #153 ) ;
#257 = DIRECTION ( 'NONE',  ( -1.000000000000000000, 0.0000000000000000000, 0.0000000000000000000 ) ) ;
#258 = CARTESIAN_POINT ( 'NONE',  ( -3.750000000000006700, 7.654042494670957800E-015, 62.50000000000000000 ) ) ;
#259 = ORIENTED_EDGE ( 'NONE', *, *, #253, .F. ) ;
#260 = DIRECTION ( 'NONE',  ( -1.000000000000000000, 0.0000000000000000000, 0.0000000000000000000 ) ) ;
#261 = DIRECTION ( 'NONE',  ( 0.0000000000000000000, 0.0000000000000000000, -1.000000000000000000 ) ) ;
#262 = PLANE ( 'NONE',  #113 ) ;
#263 = CARTESIAN_POINT ( 'NONE',  ( -4.000000000000000000, 0.0000000000000000000, -62.25000000000000000 ) ) ;
#264 = CIRCLE ( 'NONE', #228, 62.50000000000000000 ) ;
#265 = DIRECTION ( 'NONE',  ( 0.7071067811865378000, 8.659560562355053700E-017, 0.7071067811865573400 ) ) ;
#266 = ORIENTED_EDGE ( 'NONE', *, *, #132, .F. ) ;
#267 = ADVANCED_FACE ( 'NONE', ( #100 ), #91, .F. ) ;
#268 = CARTESIAN_POINT ( 'NONE',  ( -3.750000000000006700, 0.0000000000000000000, 0.0000000000000000000 ) ) ;
#269 = APPROVAL ( #232, 'UNSPECIFIED' ) ;
#270 = ORIENTED_EDGE ( 'NONE', *, *, #212, .F. ) ;
#271 = ADVANCED_FACE ( 'NONE', ( #217 ), #15, .T. ) ;
#272 = EDGE_CURVE ( 'NONE', #77, #225, #243, .T. ) ;
#273 = APPLICATION_CONTEXT ( 'configuration controlled 3d designs of mechanical parts and assemblies' ) ;
#274 = APPLICATION_CONTEXT ( 'configuration controlled 3d designs of mechanical parts and assemblies' ) ;
#275 = CALENDAR_DATE ( 2019, 10, 1 ) ;
ENDSEC;
END-ISO-10303-21;
