ISO-10303-21;
HEADER;
FILE_DESCRIPTION (( 'STEP AP203' ),
    '1' );
FILE_NAME ('Web Model 14962_14962.step',
    '2020-07-27T18:38:44',
    ( '' ),
    ( '' ),
    'SwSTEP 2.0',
    'SolidWorks 2018',
    '' );
FILE_SCHEMA (( 'CONFIG_CONTROL_DESIGN' ));
ENDSEC;

DATA;
#1 = ORGANIZATION ( 'UNSPECIFIED', 'UNSPECIFIED', '' ) ;
#2 = LOCAL_TIME ( 14, 38, 44.00000000000000000, #8 ) ;
#3 = AXIS2_PLACEMENT_3D ( 'NONE', #27, #16, #43 ) ;
#4 = DIRECTION ( 'NONE',  ( -1.000000000000000000, -0.0000000000000000000, -0.0000000000000000000 ) ) ;
#5 = ORIENTED_EDGE ( 'NONE', *, *, #38, .F. ) ;
#6 = AXIS2_PLACEMENT_3D ( 'NONE', #162, #37, #77 ) ;
#7 = APPROVAL_PERSON_ORGANIZATION ( #146, #112, #167 ) ;
#8 = COORDINATED_UNIVERSAL_TIME_OFFSET ( 5, 0, .BEHIND. ) ;
#9 = ORIENTED_EDGE ( 'NONE', *, *, #45, .F. ) ;
#10 = AXIS2_PLACEMENT_3D ( 'NONE', #12, #89, #101 ) ;
#11 = ORIENTED_EDGE ( 'NONE', *, *, #40, .T. ) ;
#12 = CARTESIAN_POINT ( 'NONE',  ( -1.000000000000000000, 0.0000000000000000000, 0.0000000000000000000 ) ) ;
#13 = APPLICATION_PROTOCOL_DEFINITION ( 'international standard', 'config_control_design', 1994, #53 ) ;
#14 = APPROVAL_DATE_TIME ( #60, #112 ) ;
#15 = ADVANCED_FACE ( 'NONE', ( #174 ), #148, .T. ) ;
#16 = DIRECTION ( 'NONE',  ( -1.000000000000000000, -0.0000000000000000000, -0.0000000000000000000 ) ) ;
#17 =( NAMED_UNIT ( * ) PLANE_ANGLE_UNIT ( ) SI_UNIT ( $, .RADIAN. ) );
#18 = ORIENTED_EDGE ( 'NONE', *, *, #137, .T. ) ;
#19 = DATE_AND_TIME ( #164, #134 ) ;
#20 =( GEOMETRIC_REPRESENTATION_CONTEXT ( 3 ) GLOBAL_UNCERTAINTY_ASSIGNED_CONTEXT ( ( #35 ) ) GLOBAL_UNIT_ASSIGNED_CONTEXT ( ( #166, #17, #154 ) ) REPRESENTATION_CONTEXT ( 'NONE', 'WORKASPACE' ) );
#21 = CALENDAR_DATE ( 2020, 27, 7 ) ;
#22 = CALENDAR_DATE ( 2020, 27, 7 ) ;
#23 = PRODUCT ( 'Web Model 14962_14962', 'Web Model 14962_14962', '', ( #39 ) ) ;
#24 = PERSON_AND_ORGANIZATION ( #72, #1 ) ;
#25 = CC_DESIGN_PERSON_AND_ORGANIZATION_ASSIGNMENT ( #54, #165, ( #153 ) ) ;
#26 = PERSON_AND_ORGANIZATION_ROLE ( 'creator' ) ;
#27 = CARTESIAN_POINT ( 'NONE',  ( 1.000000000000000000, 0.0000000000000000000, 0.0000000000000000000 ) ) ;
#28 = APPROVAL_STATUS ( 'not_yet_approved' ) ;
#29 = CARTESIAN_POINT ( 'NONE',  ( 1.000000000000000000, 0.0000000000000000000, 12.50000000000000000 ) ) ;
#30 = CARTESIAN_POINT ( 'NONE',  ( 1.000000000000000000, 0.0000000000000000000, 0.0000000000000000000 ) ) ;
#31 = FACE_OUTER_BOUND ( 'NONE', #171, .T. ) ;
#32 = CALENDAR_DATE ( 2020, 27, 7 ) ;
#33 = ORIENTED_EDGE ( 'NONE', *, *, #38, .T. ) ;
#34 = APPROVAL_DATE_TIME ( #88, #149 ) ;
#35 = UNCERTAINTY_MEASURE_WITH_UNIT (LENGTH_MEASURE( 1.000000000000000082E-05 ), #166, 'distance_accuracy_value', 'NONE');
#36 = EDGE_LOOP ( 'NONE', ( #5, #83, #73, #80 ) ) ;
#37 = DIRECTION ( 'NONE',  ( 1.000000000000000000, 0.0000000000000000000, 0.0000000000000000000 ) ) ;
#38 = EDGE_CURVE ( 'NONE', #114, #102, #118, .T. ) ;
#39 = MECHANICAL_CONTEXT ( 'NONE', #94, 'mechanical' ) ;
#40 = EDGE_CURVE ( 'NONE', #102, #76, #158, .T. ) ;
#41 = PERSON_AND_ORGANIZATION_ROLE ( 'classification_officer' ) ;
#42 = LINE ( 'NONE', #57, #152 ) ;
#43 = DIRECTION ( 'NONE',  ( 0.0000000000000000000, 0.0000000000000000000, 1.000000000000000000 ) ) ;
#44 = VECTOR ( 'NONE', #81, 1000.000000000000000 ) ;
#45 = EDGE_CURVE ( 'NONE', #114, #51, #42, .T. ) ;
#46 = CC_DESIGN_PERSON_AND_ORGANIZATION_ASSIGNMENT ( #160, #126, ( #153 ) ) ;
#47 = AXIS2_PLACEMENT_3D ( 'NONE', #119, #68, #124 ) ;
#48 = DIRECTION ( 'NONE',  ( 0.0000000000000000000, 0.0000000000000000000, -1.000000000000000000 ) ) ;
#49 = APPROVAL_PERSON_ORGANIZATION ( #85, #84, #52 ) ;
#50 = CIRCLE ( 'NONE', #10, 12.50000000000000000 ) ;
#51 = VERTEX_POINT ( 'NONE', #109 ) ;
#52 = APPROVAL_ROLE ( '' ) ;
#53 = APPLICATION_CONTEXT ( 'configuration controlled 3d designs of mechanical parts and assemblies' ) ;
#54 = PERSON_AND_ORGANIZATION ( #72, #1 ) ;
#55 = CIRCLE ( 'NONE', #150, 12.50000000000000000 ) ;
#56 = LOCAL_TIME ( 14, 38, 44.00000000000000000, #71 ) ;
#57 = CARTESIAN_POINT ( 'NONE',  ( 1.000000000000000000, 1.530808498934191521E-15, -12.50000000000000000 ) ) ;
#58 = CC_DESIGN_PERSON_AND_ORGANIZATION_ASSIGNMENT ( #61, #41, ( #104 ) ) ;
#59 = AXIS2_PLACEMENT_3D ( 'NONE', #156, #123, #140 ) ;
#60 = DATE_AND_TIME ( #32, #106 ) ;
#61 = PERSON_AND_ORGANIZATION ( #72, #1 ) ;
#62 = PRODUCT_DEFINITION_SHAPE ( 'NONE', 'NONE',  #100 ) ;
#63 = CLOSED_SHELL ( 'NONE', ( #67, #15, #138, #90 ) ) ;
#64 = MANIFOLD_SOLID_BREP ( 'Boss-Extrude1', #63 ) ;
#65 = CC_DESIGN_APPROVAL ( #84, ( #153 ) ) ;
#66 = CC_DESIGN_PERSON_AND_ORGANIZATION_ASSIGNMENT ( #74, #141, ( #23 ) ) ;
#67 = ADVANCED_FACE ( 'NONE', ( #144 ), #113, .T. ) ;
#68 = DIRECTION ( 'NONE',  ( 0.0000000000000000000, 0.0000000000000000000, 1.000000000000000000 ) ) ;
#69 = ORIENTED_EDGE ( 'NONE', *, *, #105, .F. ) ;
#70 = COORDINATED_UNIVERSAL_TIME_OFFSET ( 5, 0, .BEHIND. ) ;
#71 = COORDINATED_UNIVERSAL_TIME_OFFSET ( 5, 0, .BEHIND. ) ;
#72 = PERSON ( 'UNSPECIFIED', 'UNSPECIFIED', 'UNSPECIFIED', ('UNSPECIFIED'), ('UNSPECIFIED'), ('UNSPECIFIED') ) ;
#73 = ORIENTED_EDGE ( 'NONE', *, *, #172, .T. ) ;
#74 = PERSON_AND_ORGANIZATION ( #72, #1 ) ;
#75 = AXIS2_PLACEMENT_3D ( 'NONE', #142, #129, #125 ) ;
#76 = VERTEX_POINT ( 'NONE', #95 ) ;
#77 = DIRECTION ( 'NONE',  ( 0.0000000000000000000, 0.0000000000000000000, -1.000000000000000000 ) ) ;
#78 = APPROVAL_STATUS ( 'not_yet_approved' ) ;
#79 = DATE_TIME_ROLE ( 'classification_date' ) ;
#80 = ORIENTED_EDGE ( 'NONE', *, *, #40, .F. ) ;
#81 = DIRECTION ( 'NONE',  ( -1.000000000000000000, -0.0000000000000000000, -0.0000000000000000000 ) ) ;
#82 = DIRECTION ( 'NONE',  ( 0.0000000000000000000, 0.0000000000000000000, -1.000000000000000000 ) ) ;
#83 = ORIENTED_EDGE ( 'NONE', *, *, #45, .T. ) ;
#84 = APPROVAL ( #163, 'UNSPECIFIED' ) ;
#85 = PERSON_AND_ORGANIZATION ( #72, #1 ) ;
#86 = EDGE_LOOP ( 'NONE', ( #97, #33 ) ) ;
#87 = APPROVAL_DATE_TIME ( #91, #84 ) ;
#88 = DATE_AND_TIME ( #151, #56 ) ;
#89 = DIRECTION ( 'NONE',  ( 1.000000000000000000, 0.0000000000000000000, 0.0000000000000000000 ) ) ;
#90 = ADVANCED_FACE ( 'NONE', ( #31 ), #127, .F. ) ;
#91 = DATE_AND_TIME ( #22, #169 ) ;
#92 = APPLICATION_PROTOCOL_DEFINITION ( 'international standard', 'config_control_design', 1994, #94 ) ;
#93 = CARTESIAN_POINT ( 'NONE',  ( 1.000000000000000000, 0.0000000000000000000, 12.50000000000000000 ) ) ;
#94 = APPLICATION_CONTEXT ( 'configuration controlled 3d designs of mechanical parts and assemblies' ) ;
#95 = CARTESIAN_POINT ( 'NONE',  ( -1.000000000000000000, 0.0000000000000000000, 12.50000000000000000 ) ) ;
#96 = CARTESIAN_POINT ( 'NONE',  ( 1.000000000000000000, 0.0000000000000000000, 0.0000000000000000000 ) ) ;
#97 = ORIENTED_EDGE ( 'NONE', *, *, #105, .T. ) ;
#98 = SHAPE_DEFINITION_REPRESENTATION ( #62, #128 ) ;
#99 = FACE_OUTER_BOUND ( 'NONE', #86, .T. ) ;
#100 = PRODUCT_DEFINITION ( 'UNKNOWN', '', #153, #108 ) ;
#101 = DIRECTION ( 'NONE',  ( 0.0000000000000000000, 0.0000000000000000000, -1.000000000000000000 ) ) ;
#102 = VERTEX_POINT ( 'NONE', #93 ) ;
#103 = PLANE ( 'NONE',  #6 ) ;
#104 = SECURITY_CLASSIFICATION ( '', '', #120 ) ;
#105 = EDGE_CURVE ( 'NONE', #102, #114, #136, .T. ) ;
#106 = LOCAL_TIME ( 14, 38, 44.00000000000000000, #70 ) ;
#107 = DATE_TIME_ROLE ( 'creation_date' ) ;
#108 = DESIGN_CONTEXT ( 'detailed design', #53, 'design' ) ;
#109 = CARTESIAN_POINT ( 'NONE',  ( -1.000000000000000000, 1.530808498934191521E-15, -12.50000000000000000 ) ) ;
#110 = ORIENTED_EDGE ( 'NONE', *, *, #137, .F. ) ;
#111 = CC_DESIGN_DATE_AND_TIME_ASSIGNMENT ( #139, #79, ( #104 ) ) ;
#112 = APPROVAL ( #28, 'UNSPECIFIED' ) ;
#113 = CYLINDRICAL_SURFACE ( 'NONE', #75, 12.50000000000000000 ) ;
#114 = VERTEX_POINT ( 'NONE', #133 ) ;
#115 = EDGE_LOOP ( 'NONE', ( #9, #69, #11, #18 ) ) ;
#116 = CARTESIAN_POINT ( 'NONE',  ( -1.000000000000000000, 0.0000000000000000000, 0.0000000000000000000 ) ) ;
#117 = DIRECTION ( 'NONE',  ( 1.000000000000000000, 0.0000000000000000000, 0.0000000000000000000 ) ) ;
#118 = CIRCLE ( 'NONE', #170, 12.50000000000000000 ) ;
#119 = CARTESIAN_POINT ( 'NONE',  ( 0.0000000000000000000, 0.0000000000000000000, 0.0000000000000000000 ) ) ;
#120 = SECURITY_CLASSIFICATION_LEVEL ( 'unclassified' ) ;
#121 = CC_DESIGN_APPROVAL ( #112, ( #100 ) ) ;
#122 = COORDINATED_UNIVERSAL_TIME_OFFSET ( 5, 0, .BEHIND. ) ;
#123 = DIRECTION ( 'NONE',  ( 1.000000000000000000, 0.0000000000000000000, 0.0000000000000000000 ) ) ;
#124 = DIRECTION ( 'NONE',  ( 1.000000000000000000, 0.0000000000000000000, 0.0000000000000000000 ) ) ;
#125 = DIRECTION ( 'NONE',  ( 0.0000000000000000000, 0.0000000000000000000, 1.000000000000000000 ) ) ;
#126 = PERSON_AND_ORGANIZATION_ROLE ( 'design_supplier' ) ;
#127 = PLANE ( 'NONE',  #59 ) ;
#128 = ADVANCED_BREP_SHAPE_REPRESENTATION ( 'Web Model 14962_14962', ( #64, #47 ), #20 ) ;
#129 = DIRECTION ( 'NONE',  ( -1.000000000000000000, -0.0000000000000000000, -0.0000000000000000000 ) ) ;
#130 = DIRECTION ( 'NONE',  ( 1.000000000000000000, 0.0000000000000000000, 0.0000000000000000000 ) ) ;
#131 = PRODUCT_RELATED_PRODUCT_CATEGORY ( 'detail', '', ( #23 ) ) ;
#132 = COORDINATED_UNIVERSAL_TIME_OFFSET ( 5, 0, .BEHIND. ) ;
#133 = CARTESIAN_POINT ( 'NONE',  ( 1.000000000000000000, 1.530808498934191521E-15, -12.50000000000000000 ) ) ;
#134 = LOCAL_TIME ( 14, 38, 44.00000000000000000, #122 ) ;
#135 = CC_DESIGN_PERSON_AND_ORGANIZATION_ASSIGNMENT ( #24, #26, ( #100 ) ) ;
#136 = CIRCLE ( 'NONE', #157, 12.50000000000000000 ) ;
#137 = EDGE_CURVE ( 'NONE', #76, #51, #50, .T. ) ;
#138 = ADVANCED_FACE ( 'NONE', ( #99 ), #103, .T. ) ;
#139 = DATE_AND_TIME ( #21, #2 ) ;
#140 = DIRECTION ( 'NONE',  ( 0.0000000000000000000, 0.0000000000000000000, -1.000000000000000000 ) ) ;
#141 = PERSON_AND_ORGANIZATION_ROLE ( 'design_owner' ) ;
#142 = CARTESIAN_POINT ( 'NONE',  ( 1.000000000000000000, 0.0000000000000000000, 0.0000000000000000000 ) ) ;
#143 = APPROVAL_ROLE ( '' ) ;
#144 = FACE_OUTER_BOUND ( 'NONE', #36, .T. ) ;
#145 = APPROVAL_PERSON_ORGANIZATION ( #161, #149, #143 ) ;
#146 = PERSON_AND_ORGANIZATION ( #72, #1 ) ;
#147 = CC_DESIGN_DATE_AND_TIME_ASSIGNMENT ( #19, #107, ( #100 ) ) ;
#148 = CYLINDRICAL_SURFACE ( 'NONE', #3, 12.50000000000000000 ) ;
#149 = APPROVAL ( #78, 'UNSPECIFIED' ) ;
#150 = AXIS2_PLACEMENT_3D ( 'NONE', #116, #117, #173 ) ;
#151 = CALENDAR_DATE ( 2020, 27, 7 ) ;
#152 = VECTOR ( 'NONE', #4, 1000.000000000000000 ) ;
#153 = PRODUCT_DEFINITION_FORMATION_WITH_SPECIFIED_SOURCE ( 'ANY', '', #23, .NOT_KNOWN. ) ;
#154 =( NAMED_UNIT ( * ) SI_UNIT ( $, .STERADIAN. ) SOLID_ANGLE_UNIT ( ) );
#155 = ORIENTED_EDGE ( 'NONE', *, *, #172, .F. ) ;
#156 = CARTESIAN_POINT ( 'NONE',  ( -1.000000000000000000, 0.0000000000000000000, 0.0000000000000000000 ) ) ;
#157 = AXIS2_PLACEMENT_3D ( 'NONE', #30, #130, #48 ) ;
#158 = LINE ( 'NONE', #29, #44 ) ;
#159 = CC_DESIGN_SECURITY_CLASSIFICATION ( #104, ( #153 ) ) ;
#160 = PERSON_AND_ORGANIZATION ( #72, #1 ) ;
#161 = PERSON_AND_ORGANIZATION ( #72, #1 ) ;
#162 = CARTESIAN_POINT ( 'NONE',  ( 1.000000000000000000, 0.0000000000000000000, 0.0000000000000000000 ) ) ;
#163 = APPROVAL_STATUS ( 'not_yet_approved' ) ;
#164 = CALENDAR_DATE ( 2020, 27, 7 ) ;
#165 = PERSON_AND_ORGANIZATION_ROLE ( 'creator' ) ;
#166 =( LENGTH_UNIT ( ) NAMED_UNIT ( * ) SI_UNIT ( .MILLI., .METRE. ) );
#167 = APPROVAL_ROLE ( '' ) ;
#168 = DIRECTION ( 'NONE',  ( 1.000000000000000000, 0.0000000000000000000, 0.0000000000000000000 ) ) ;
#169 = LOCAL_TIME ( 14, 38, 44.00000000000000000, #132 ) ;
#170 = AXIS2_PLACEMENT_3D ( 'NONE', #96, #168, #82 ) ;
#171 = EDGE_LOOP ( 'NONE', ( #110, #155 ) ) ;
#172 = EDGE_CURVE ( 'NONE', #51, #76, #55, .T. ) ;
#173 = DIRECTION ( 'NONE',  ( 0.0000000000000000000, 0.0000000000000000000, -1.000000000000000000 ) ) ;
#174 = FACE_OUTER_BOUND ( 'NONE', #115, .T. ) ;
#175 = CC_DESIGN_APPROVAL ( #149, ( #104 ) ) ;
ENDSEC;
END-ISO-10303-21;
