ISO-10303-21;
HEADER;
FILE_DESCRIPTION (( 'STEP AP203' ),
    '1' );
FILE_NAME ('36992_36998.step',
    '2017-09-06T15:55:53',
    ( '' ),
    ( '' ),
    'SwSTEP 2.0',
    'SolidWorks 2016',
    '' );
FILE_SCHEMA (( 'CONFIG_CONTROL_DESIGN' ));
ENDSEC;

DATA;
#1 = CALENDAR_DATE ( 2017, 6, 9 ) ;
#2 = SHAPE_DEFINITION_REPRESENTATION ( #38, #96 ) ;
#3 = LOCAL_TIME ( 11, 55, 53.00000000000000000, #168 ) ;
#4 = DIRECTION ( 'NONE',  ( 1.000000000000000000, 0.0000000000000000000, -0.0000000000000000000 ) ) ;
#5 = CARTESIAN_POINT ( 'NONE',  ( 0.0000000000000000000, 0.0000000000000000000, 1.000000000000000000 ) ) ;
#6 = APPLICATION_CONTEXT ( 'configuration controlled 3d designs of mechanical parts and assemblies' ) ;
#7 = DIRECTION ( 'NONE',  ( 1.000000000000000000, 0.0000000000000000000, 0.0000000000000000000 ) ) ;
#8 = CC_DESIGN_APPROVAL ( #97, ( #150 ) ) ;
#9 = FACE_OUTER_BOUND ( 'NONE', #134, .T. ) ;
#10 = CC_DESIGN_PERSON_AND_ORGANIZATION_ASSIGNMENT ( #63, #39, ( #115 ) ) ;
#11 = APPROVAL_ROLE ( '' ) ;
#12 = FACE_OUTER_BOUND ( 'NONE', #21, .T. ) ;
#13 = ORIENTED_EDGE ( 'NONE', *, *, #32, .T. ) ;
#14 = CIRCLE ( 'NONE', #55, 12.50000000000000000 ) ;
#15 = CC_DESIGN_PERSON_AND_ORGANIZATION_ASSIGNMENT ( #175, #48, ( #150 ) ) ;
#16 = VECTOR ( 'NONE', #120, 1000.000000000000000 ) ;
#17 = CC_DESIGN_PERSON_AND_ORGANIZATION_ASSIGNMENT ( #116, #101, ( #119 ) ) ;
#18 = AXIS2_PLACEMENT_3D ( 'NONE', #136, #153, #165 ) ;
#19 = CARTESIAN_POINT ( 'NONE',  ( 0.0000000000000000000, 0.0000000000000000000, 1.000000000000000000 ) ) ;
#20 = CC_DESIGN_DATE_AND_TIME_ASSIGNMENT ( #145, #131, ( #119 ) ) ;
#21 = EDGE_LOOP ( 'NONE', ( #118, #71 ) ) ;
#22 = PERSON_AND_ORGANIZATION_ROLE ( 'creator' ) ;
#23 = VERTEX_POINT ( 'NONE', #31 ) ;
#24 = APPLICATION_PROTOCOL_DEFINITION ( 'international standard', 'config_control_design', 1994, #172 ) ;
#25 = AXIS2_PLACEMENT_3D ( 'NONE', #121, #80, #33 ) ;
#26 = ORGANIZATION ( 'UNSPECIFIED', 'UNSPECIFIED', '' ) ;
#27 = COORDINATED_UNIVERSAL_TIME_OFFSET ( 5, 0, .BEHIND. ) ;
#28 = ORIENTED_EDGE ( 'NONE', *, *, #98, .F. ) ;
#29 = CARTESIAN_POINT ( 'NONE',  ( 12.50000000000000000, 1.530808498934191500E-015, 1.000000000000000000 ) ) ;
#30 = CC_DESIGN_APPROVAL ( #125, ( #115 ) ) ;
#31 = CARTESIAN_POINT ( 'NONE',  ( -12.50000000000000000, 0.0000000000000000000, -1.000000000000000000 ) ) ;
#32 = EDGE_CURVE ( 'NONE', #36, #132, #117, .T. ) ;
#33 = DIRECTION ( 'NONE',  ( -1.000000000000000000, 0.0000000000000000000, 0.0000000000000000000 ) ) ;
#34 = PLANE ( 'NONE',  #72 ) ;
#35 = LOCAL_TIME ( 11, 55, 53.00000000000000000, #45 ) ;
#36 = VERTEX_POINT ( 'NONE', #92 ) ;
#37 = DIRECTION ( 'NONE',  ( 0.0000000000000000000, 0.0000000000000000000, 1.000000000000000000 ) ) ;
#38 = PRODUCT_DEFINITION_SHAPE ( 'NONE', 'NONE',  #119 ) ;
#39 = PERSON_AND_ORGANIZATION_ROLE ( 'design_supplier' ) ;
#40 = CC_DESIGN_SECURITY_CLASSIFICATION ( #150, ( #115 ) ) ;
#41 = AXIS2_PLACEMENT_3D ( 'NONE', #108, #37, #124 ) ;
#42 = PERSON_AND_ORGANIZATION ( #50, #26 ) ;
#43 = APPROVAL_PERSON_ORGANIZATION ( #107, #125, #114 ) ;
#44 = ORIENTED_EDGE ( 'NONE', *, *, #65, .T. ) ;
#45 = COORDINATED_UNIVERSAL_TIME_OFFSET ( 5, 0, .BEHIND. ) ;
#46 = ADVANCED_FACE ( 'NONE', ( #12 ), #34, .F. ) ;
#47 =( NAMED_UNIT ( * ) PLANE_ANGLE_UNIT ( ) SI_UNIT ( $, .RADIAN. ) );
#48 = PERSON_AND_ORGANIZATION_ROLE ( 'classification_officer' ) ;
#49 = AXIS2_PLACEMENT_3D ( 'NONE', #5, #154, #167 ) ;
#50 = PERSON ( 'UNSPECIFIED', 'UNSPECIFIED', 'UNSPECIFIED', ('UNSPECIFIED'), ('UNSPECIFIED'), ('UNSPECIFIED') ) ;
#51 = UNCERTAINTY_MEASURE_WITH_UNIT (LENGTH_MEASURE( 1.000000000000000100E-005 ), #82, 'distance_accuracy_value', 'NONE');
#52 = LINE ( 'NONE', #29, #16 ) ;
#53 = DIRECTION ( 'NONE',  ( 1.000000000000000000, 0.0000000000000000000, -0.0000000000000000000 ) ) ;
#54 = LOCAL_TIME ( 11, 55, 53.00000000000000000, #100 ) ;
#55 = AXIS2_PLACEMENT_3D ( 'NONE', #59, #112, #129 ) ;
#56 = PERSON_AND_ORGANIZATION ( #50, #26 ) ;
#57 =( NAMED_UNIT ( * ) SI_UNIT ( $, .STERADIAN. ) SOLID_ANGLE_UNIT ( ) );
#58 = APPROVAL_STATUS ( 'not_yet_approved' ) ;
#59 = CARTESIAN_POINT ( 'NONE',  ( 0.0000000000000000000, 0.0000000000000000000, -1.000000000000000000 ) ) ;
#60 = CLOSED_SHELL ( 'NONE', ( #157, #111, #126, #46 ) ) ;
#61 = PRODUCT ( '36992_36998', '36992_36998', '', ( #83 ) ) ;
#62 = APPROVAL ( #58, 'UNSPECIFIED' ) ;
#63 = PERSON_AND_ORGANIZATION ( #50, #26 ) ;
#64 = ORIENTED_EDGE ( 'NONE', *, *, #149, .T. ) ;
#65 = EDGE_CURVE ( 'NONE', #132, #36, #75, .T. ) ;
#66 = LOCAL_TIME ( 11, 55, 53.00000000000000000, #27 ) ;
#67 = CARTESIAN_POINT ( 'NONE',  ( 0.0000000000000000000, 0.0000000000000000000, -1.000000000000000000 ) ) ;
#68 = APPROVAL_ROLE ( '' ) ;
#69 = CC_DESIGN_DATE_AND_TIME_ASSIGNMENT ( #93, #85, ( #150 ) ) ;
#70 = DATE_AND_TIME ( #1, #66 ) ;
#71 = ORIENTED_EDGE ( 'NONE', *, *, #143, .F. ) ;
#72 = AXIS2_PLACEMENT_3D ( 'NONE', #67, #106, #53 ) ;
#73 = DESIGN_CONTEXT ( 'detailed design', #6, 'design' ) ;
#74 = EDGE_LOOP ( 'NONE', ( #127, #170, #94, #113 ) ) ;
#75 = CIRCLE ( 'NONE', #171, 12.50000000000000000 ) ;
#76 = DIRECTION ( 'NONE',  ( 1.000000000000000000, 0.0000000000000000000, 0.0000000000000000000 ) ) ;
#77 = MANIFOLD_SOLID_BREP ( 'Boss-Extrude1', #60 ) ;
#78 = LOCAL_TIME ( 11, 55, 53.00000000000000000, #141 ) ;
#79 = AXIS2_PLACEMENT_3D ( 'NONE', #144, #147, #7 ) ;
#80 = DIRECTION ( 'NONE',  ( -0.0000000000000000000, -0.0000000000000000000, -1.000000000000000000 ) ) ;
#81 = DIRECTION ( 'NONE',  ( 0.0000000000000000000, 0.0000000000000000000, 1.000000000000000000 ) ) ;
#82 =( LENGTH_UNIT ( ) NAMED_UNIT ( * ) SI_UNIT ( .MILLI., .METRE. ) );
#83 = MECHANICAL_CONTEXT ( 'NONE', #172, 'mechanical' ) ;
#84 = CIRCLE ( 'NONE', #41, 12.50000000000000000 ) ;
#85 = DATE_TIME_ROLE ( 'classification_date' ) ;
#86 = PERSON_AND_ORGANIZATION_ROLE ( 'design_owner' ) ;
#87 = APPLICATION_PROTOCOL_DEFINITION ( 'international standard', 'config_control_design', 1994, #6 ) ;
#88 = ORIENTED_EDGE ( 'NONE', *, *, #135, .T. ) ;
#89 = PRODUCT_RELATED_PRODUCT_CATEGORY ( 'detail', '', ( #61 ) ) ;
#90 = CC_DESIGN_PERSON_AND_ORGANIZATION_ASSIGNMENT ( #56, #86, ( #61 ) ) ;
#91 = DATE_AND_TIME ( #95, #54 ) ;
#92 = CARTESIAN_POINT ( 'NONE',  ( 12.50000000000000000, 1.530808498934191500E-015, 1.000000000000000000 ) ) ;
#93 = DATE_AND_TIME ( #137, #3 ) ;
#94 = ORIENTED_EDGE ( 'NONE', *, *, #143, .T. ) ;
#95 = CALENDAR_DATE ( 2017, 6, 9 ) ;
#96 = ADVANCED_BREP_SHAPE_REPRESENTATION ( '36992_36998', ( #77, #79 ), #160 ) ;
#97 = APPROVAL ( #128, 'UNSPECIFIED' ) ;
#98 = EDGE_CURVE ( 'NONE', #36, #103, #52, .T. ) ;
#99 = CALENDAR_DATE ( 2017, 6, 9 ) ;
#100 = COORDINATED_UNIVERSAL_TIME_OFFSET ( 5, 0, .BEHIND. ) ;
#101 = PERSON_AND_ORGANIZATION_ROLE ( 'creator' ) ;
#102 = APPROVAL_PERSON_ORGANIZATION ( #138, #97, #68 ) ;
#103 = VERTEX_POINT ( 'NONE', #105 ) ;
#104 = CC_DESIGN_PERSON_AND_ORGANIZATION_ASSIGNMENT ( #42, #22, ( #115 ) ) ;
#105 = CARTESIAN_POINT ( 'NONE',  ( 12.50000000000000000, 1.530808498934191500E-015, -1.000000000000000000 ) ) ;
#106 = DIRECTION ( 'NONE',  ( 0.0000000000000000000, 0.0000000000000000000, 1.000000000000000000 ) ) ;
#107 = PERSON_AND_ORGANIZATION ( #50, #26 ) ;
#108 = CARTESIAN_POINT ( 'NONE',  ( 0.0000000000000000000, 0.0000000000000000000, -1.000000000000000000 ) ) ;
#109 = APPROVAL_DATE_TIME ( #133, #97 ) ;
#110 = AXIS2_PLACEMENT_3D ( 'NONE', #19, #81, #4 ) ;
#111 = ADVANCED_FACE ( 'NONE', ( #9 ), #130, .T. ) ;
#112 = DIRECTION ( 'NONE',  ( 0.0000000000000000000, 0.0000000000000000000, 1.000000000000000000 ) ) ;
#113 = ORIENTED_EDGE ( 'NONE', *, *, #135, .F. ) ;
#114 = APPROVAL_ROLE ( '' ) ;
#115 = PRODUCT_DEFINITION_FORMATION_WITH_SPECIFIED_SOURCE ( 'ANY', '', #61, .NOT_KNOWN. ) ;
#116 = PERSON_AND_ORGANIZATION ( #50, #26 ) ;
#117 = CIRCLE ( 'NONE', #18, 12.50000000000000000 ) ;
#118 = ORIENTED_EDGE ( 'NONE', *, *, #149, .F. ) ;
#119 = PRODUCT_DEFINITION ( 'UNKNOWN', '', #115, #73 ) ;
#120 = DIRECTION ( 'NONE',  ( -0.0000000000000000000, -0.0000000000000000000, -1.000000000000000000 ) ) ;
#121 = CARTESIAN_POINT ( 'NONE',  ( 0.0000000000000000000, 0.0000000000000000000, 1.000000000000000000 ) ) ;
#122 = FACE_OUTER_BOUND ( 'NONE', #161, .T. ) ;
#123 = CARTESIAN_POINT ( 'NONE',  ( -12.50000000000000000, 0.0000000000000000000, 1.000000000000000000 ) ) ;
#124 = DIRECTION ( 'NONE',  ( 1.000000000000000000, 0.0000000000000000000, 0.0000000000000000000 ) ) ;
#125 = APPROVAL ( #174, 'UNSPECIFIED' ) ;
#126 = ADVANCED_FACE ( 'NONE', ( #122 ), #140, .T. ) ;
#127 = ORIENTED_EDGE ( 'NONE', *, *, #32, .F. ) ;
#128 = APPROVAL_STATUS ( 'not_yet_approved' ) ;
#129 = DIRECTION ( 'NONE',  ( 1.000000000000000000, 0.0000000000000000000, 0.0000000000000000000 ) ) ;
#130 = CYLINDRICAL_SURFACE ( 'NONE', #25, 12.50000000000000000 ) ;
#131 = DATE_TIME_ROLE ( 'creation_date' ) ;
#132 = VERTEX_POINT ( 'NONE', #123 ) ;
#133 = DATE_AND_TIME ( #173, #78 ) ;
#134 = EDGE_LOOP ( 'NONE', ( #28, #169, #88, #64 ) ) ;
#135 = EDGE_CURVE ( 'NONE', #132, #23, #151, .T. ) ;
#136 = CARTESIAN_POINT ( 'NONE',  ( 0.0000000000000000000, 0.0000000000000000000, 1.000000000000000000 ) ) ;
#137 = CALENDAR_DATE ( 2017, 6, 9 ) ;
#138 = PERSON_AND_ORGANIZATION ( #50, #26 ) ;
#139 = APPROVAL_PERSON_ORGANIZATION ( #164, #62, #11 ) ;
#140 = PLANE ( 'NONE',  #110 ) ;
#141 = COORDINATED_UNIVERSAL_TIME_OFFSET ( 5, 0, .BEHIND. ) ;
#142 = CARTESIAN_POINT ( 'NONE',  ( -12.50000000000000000, 0.0000000000000000000, 1.000000000000000000 ) ) ;
#143 = EDGE_CURVE ( 'NONE', #103, #23, #84, .T. ) ;
#144 = CARTESIAN_POINT ( 'NONE',  ( 0.0000000000000000000, 0.0000000000000000000, 0.0000000000000000000 ) ) ;
#145 = DATE_AND_TIME ( #99, #35 ) ;
#146 = VECTOR ( 'NONE', #156, 1000.000000000000000 ) ;
#147 = DIRECTION ( 'NONE',  ( 0.0000000000000000000, 0.0000000000000000000, 1.000000000000000000 ) ) ;
#148 = SECURITY_CLASSIFICATION_LEVEL ( 'unclassified' ) ;
#149 = EDGE_CURVE ( 'NONE', #23, #103, #14, .T. ) ;
#150 = SECURITY_CLASSIFICATION ( '', '', #148 ) ;
#151 = LINE ( 'NONE', #142, #146 ) ;
#152 = APPROVAL_DATE_TIME ( #70, #125 ) ;
#153 = DIRECTION ( 'NONE',  ( 0.0000000000000000000, 0.0000000000000000000, 1.000000000000000000 ) ) ;
#154 = DIRECTION ( 'NONE',  ( -0.0000000000000000000, -0.0000000000000000000, -1.000000000000000000 ) ) ;
#155 = FACE_OUTER_BOUND ( 'NONE', #74, .T. ) ;
#156 = DIRECTION ( 'NONE',  ( -0.0000000000000000000, -0.0000000000000000000, -1.000000000000000000 ) ) ;
#157 = ADVANCED_FACE ( 'NONE', ( #155 ), #158, .T. ) ;
#158 = CYLINDRICAL_SURFACE ( 'NONE', #49, 12.50000000000000000 ) ;
#159 = CC_DESIGN_APPROVAL ( #62, ( #119 ) ) ;
#160 =( GEOMETRIC_REPRESENTATION_CONTEXT ( 3 ) GLOBAL_UNCERTAINTY_ASSIGNED_CONTEXT ( ( #51 ) ) GLOBAL_UNIT_ASSIGNED_CONTEXT ( ( #82, #47, #57 ) ) REPRESENTATION_CONTEXT ( 'NONE', 'WORKASPACE' ) );
#161 = EDGE_LOOP ( 'NONE', ( #44, #13 ) ) ;
#162 = APPROVAL_DATE_TIME ( #91, #62 ) ;
#163 = CARTESIAN_POINT ( 'NONE',  ( 0.0000000000000000000, 0.0000000000000000000, 1.000000000000000000 ) ) ;
#164 = PERSON_AND_ORGANIZATION ( #50, #26 ) ;
#165 = DIRECTION ( 'NONE',  ( 1.000000000000000000, 0.0000000000000000000, 0.0000000000000000000 ) ) ;
#166 = DIRECTION ( 'NONE',  ( 0.0000000000000000000, 0.0000000000000000000, 1.000000000000000000 ) ) ;
#167 = DIRECTION ( 'NONE',  ( -1.000000000000000000, 0.0000000000000000000, 0.0000000000000000000 ) ) ;
#168 = COORDINATED_UNIVERSAL_TIME_OFFSET ( 5, 0, .BEHIND. ) ;
#169 = ORIENTED_EDGE ( 'NONE', *, *, #65, .F. ) ;
#170 = ORIENTED_EDGE ( 'NONE', *, *, #98, .T. ) ;
#171 = AXIS2_PLACEMENT_3D ( 'NONE', #163, #166, #76 ) ;
#172 = APPLICATION_CONTEXT ( 'configuration controlled 3d designs of mechanical parts and assemblies' ) ;
#173 = CALENDAR_DATE ( 2017, 6, 9 ) ;
#174 = APPROVAL_STATUS ( 'not_yet_approved' ) ;
#175 = PERSON_AND_ORGANIZATION ( #50, #26 ) ;
ENDSEC;
END-ISO-10303-21;
