ISO-10303-21;
HEADER;
FILE_DESCRIPTION (( 'STEP AP214' ),
    '1' );
FILE_NAME ('19309-E0W.STEP',
    '2009-12-21T16:56:24',
    ( ' ' ),
    ( ' ' ),
    'SwSTEP 2.0',
    'SolidWorks 2009',
    '' );
FILE_SCHEMA (( 'AUTOMOTIVE_DESIGN' ));
ENDSEC;

DATA;
#1 =( LENGTH_UNIT ( ) NAMED_UNIT ( * ) SI_UNIT ( .MILLI., .METRE. ) );
#2 = MECHANICAL_DESIGN_GEOMETRIC_PRESENTATION_REPRESENTATION (  '', ( #4 ), #242 ) ;
#3 = PRESENTATION_LAYER_ASSIGNMENT (  '', '', ( #4 ) ) ;
#4 = STYLED_ITEM ( 'NONE', ( #5 ), #167 ) ;
#5 = PRESENTATION_STYLE_ASSIGNMENT (( #6 ) ) ;
#6 = SURFACE_STYLE_USAGE ( .BOTH. , #7 ) ;
#7 = SURFACE_SIDE_STYLE ('',( #8 ) ) ;
#8 = SURFACE_STYLE_FILL_AREA ( #9 ) ;
#9 = FILL_AREA_STYLE ('',( #14 ) ) ;
#10 = DIRECTION ( 'NONE',  ( 1.000000000000000000, 0.0000000000000000000, 0.0000000000000000000 ) ) ;
#11 = DIRECTION ( 'NONE',  ( -0.0000000000000000000, -0.0000000000000000000, 1.000000000000000000 ) ) ;
#12 = AXIS2_PLACEMENT_3D ( 'NONE', #15, #11, #10 ) ;
#13 = COLOUR_RGB ( '',0.7960784313725489700, 0.8235294117647058400, 0.9372549019607843100 ) ;
#14 = FILL_AREA_STYLE_COLOUR ( '', #13 ) ;
#15 = CARTESIAN_POINT ( 'NONE',  ( 0.0000000000000000000, 0.0000000000000000000, 4.308132045400366600 ) ) ;
#16 = CYLINDRICAL_SURFACE ( 'NONE', #12, 15.00000000000000000 ) ;
#17 =( NAMED_UNIT ( * ) SI_UNIT ( $, .STERADIAN. ) SOLID_ANGLE_UNIT ( ) );
#18 =( NAMED_UNIT ( * ) PLANE_ANGLE_UNIT ( ) SI_UNIT ( $, .RADIAN. ) );
#19 =( LENGTH_UNIT ( ) NAMED_UNIT ( * ) SI_UNIT ( .MILLI., .METRE. ) );
#20 = FILL_AREA_STYLE_COLOUR ( '', #21 ) ;
#21 = COLOUR_RGB ( '',0.9568627450980391500, 0.9490196078431372100, 0.9607843137254902200 ) ;
#22 = FACE_OUTER_BOUND ( 'NONE', #62, .T. ) ;
#23 = CARTESIAN_POINT ( 'NONE',  ( -1.836909530733561500E-015, -14.99999999999996100, 0.2920213713769946300 ) ) ;
#24 = DIRECTION ( 'NONE',  ( 1.000000000000000000, 0.0000000000000000000, 0.0000000000000000000 ) ) ;
#25 = DIRECTION ( 'NONE',  ( -0.0000000000000000000, -0.0000000000000000000, 1.000000000000000000 ) ) ;
#26 = CARTESIAN_POINT ( 'NONE',  ( 0.0000000000000000000, 0.0000000000000000000, 0.2920213713770011300 ) ) ;
#27 = AXIS2_PLACEMENT_3D ( 'NONE', #26, #25, #24 ) ;
#28 = EDGE_LOOP ( 'NONE', ( #29, #30, #160, #163 ) ) ;
#29 = ORIENTED_EDGE ( 'NONE', *, *, #53, .T. ) ;
#30 = ORIENTED_EDGE ( 'NONE', *, *, #31, .T. ) ;
#31 = EDGE_CURVE ( 'NONE', #49, #32, #141, .T. ) ;
#32 = VERTEX_POINT ( 'NONE', #23 ) ;
#33 = DIRECTION ( 'NONE',  ( -0.0000000000000000000, -0.0000000000000000000, 1.000000000000000000 ) ) ;
#34 = CARTESIAN_POINT ( 'NONE',  ( -15.00000000000000000, 1.836909530733565900E-015, 4.308132045400366600 ) ) ;
#35 = LINE ( 'NONE', #34, #83 ) ;
#36 = DIRECTION ( 'NONE',  ( 1.000000000000000000, 0.0000000000000000000, 0.0000000000000000000 ) ) ;
#37 = DIRECTION ( 'NONE',  ( 0.0000000000000000000, -0.0000000000000000000, 1.000000000000000000 ) ) ;
#38 = CARTESIAN_POINT ( 'NONE',  ( 0.0000000000000000000, 5.106777152444462700E-016, -1.389999999999999700 ) ) ;
#39 = AXIS2_PLACEMENT_3D ( 'NONE', #38, #37, #36 ) ;
#40 = CARTESIAN_POINT ( 'NONE',  ( -15.00000000000000400, 1.836909530733566300E-015, 0.2920213713770011300 ) ) ;
#41 = ADVANCED_FACE ( 'NONE', ( #22 ), #157, .F. ) ;
#42 = ORIENTED_EDGE ( 'NONE', *, *, #168, .F. ) ;
#43 = ORIENTED_EDGE ( 'NONE', *, *, #123, .T. ) ;
#44 = ORIENTED_EDGE ( 'NONE', *, *, #63, .F. ) ;
#45 = ORIENTED_EDGE ( 'NONE', *, *, #63, .T. ) ;
#46 =( GEOMETRIC_REPRESENTATION_CONTEXT ( 3 ) GLOBAL_UNCERTAINTY_ASSIGNED_CONTEXT ( ( #47 ) ) GLOBAL_UNIT_ASSIGNED_CONTEXT ( ( #143, #142, #48 ) ) REPRESENTATION_CONTEXT ( 'NONE', 'WORKASPACE' ) );
#47 = UNCERTAINTY_MEASURE_WITH_UNIT (LENGTH_MEASURE( 1.000000000000000100E-005 ), #143, 'distance_accuracy_value', 'NONE');
#48 =( NAMED_UNIT ( * ) SI_UNIT ( $, .STERADIAN. ) SOLID_ANGLE_UNIT ( ) );
#49 = VERTEX_POINT ( 'NONE', #40 ) ;
#50 = ORIENTED_EDGE ( 'NONE', *, *, #53, .F. ) ;
#51 = ORIENTED_EDGE ( 'NONE', *, *, #52, .T. ) ;
#52 = EDGE_CURVE ( 'NONE', #178, #49, #35, .T. ) ;
#53 = EDGE_CURVE ( 'NONE', #54, #49, #81, .T. ) ;
#54 = VERTEX_POINT ( 'NONE', #76 ) ;
#55 = ORIENTED_EDGE ( 'NONE', *, *, #161, .F. ) ;
#56 = ADVANCED_FACE ( 'NONE', ( #75 ), #117, .T. ) ;
#57 = ORIENTED_EDGE ( 'NONE', *, *, #165, .T. ) ;
#58 = ORIENTED_EDGE ( 'NONE', *, *, #52, .F. ) ;
#59 = ORIENTED_EDGE ( 'NONE', *, *, #31, .F. ) ;
#60 = CLOSED_SHELL ( 'NONE', ( #166, #124, #56, #185, #41 ) ) ;
#61 = ORIENTED_EDGE ( 'NONE', *, *, #165, .F. ) ;
#62 = EDGE_LOOP ( 'NONE', ( #42, #44 ) ) ;
#63 = EDGE_CURVE ( 'NONE', #178, #177, #116, .T. ) ;
#64 =( NAMED_UNIT ( * ) PLANE_ANGLE_UNIT ( ) SI_UNIT ( $, .RADIAN. ) );
#65 =( LENGTH_UNIT ( ) NAMED_UNIT ( * ) SI_UNIT ( .MILLI., .METRE. ) );
#66 = MECHANICAL_DESIGN_GEOMETRIC_PRESENTATION_REPRESENTATION (  '', ( #68 ), #118 ) ;
#67 = PRESENTATION_LAYER_ASSIGNMENT (  '', '', ( #68 ) ) ;
#68 = STYLED_ITEM ( 'NONE', ( #69 ), #56 ) ;
#69 = PRESENTATION_STYLE_ASSIGNMENT (( #70 ) ) ;
#70 = SURFACE_STYLE_USAGE ( .BOTH. , #71 ) ;
#71 = SURFACE_SIDE_STYLE ('',( #72 ) ) ;
#72 = SURFACE_STYLE_FILL_AREA ( #73 ) ;
#73 = FILL_AREA_STYLE ('',( #82 ) ) ;
#74 = COLOUR_RGB ( '',0.9568627450980391500, 0.9490196078431372100, 0.9607843137254902200 ) ;
#75 = FACE_OUTER_BOUND ( 'NONE', #156, .T. ) ;
#76 = CARTESIAN_POINT ( 'NONE',  ( 0.0000000000000000000, 14.99999999999996100, 0.2920213713769946300 ) ) ;
#77 = DIRECTION ( 'NONE',  ( 1.000000000000000000, 0.0000000000000000000, 0.0000000000000000000 ) ) ;
#78 = DIRECTION ( 'NONE',  ( -0.0000000000000000000, -0.0000000000000000000, 1.000000000000000000 ) ) ;
#79 = CARTESIAN_POINT ( 'NONE',  ( 0.0000000000000000000, 0.0000000000000000000, 0.2920213713770011300 ) ) ;
#80 = AXIS2_PLACEMENT_3D ( 'NONE', #79, #78, #77 ) ;
#81 = CIRCLE ( 'NONE', #80, 15.00000000000000200 ) ;
#82 = FILL_AREA_STYLE_COLOUR ( '', #74 ) ;
#83 = VECTOR ( 'NONE', #33, 1000.000000000000000 ) ;
#84 = CARTESIAN_POINT ( 'NONE',  ( 0.0000000000000000000, 0.0000000000000000000, -101.6199999999999900 ) ) ;
#85 = AXIS2_PLACEMENT_3D ( 'NONE', #84, #140, #139 ) ;
#86 = CIRCLE ( 'NONE', #138, 103.0099999999999900 ) ;
#87 = SPHERICAL_SURFACE ( 'NONE', #85, 103.0099999999999900 ) ;
#88 =( GEOMETRIC_REPRESENTATION_CONTEXT ( 3 ) GLOBAL_UNCERTAINTY_ASSIGNED_CONTEXT ( ( #89 ) ) GLOBAL_UNIT_ASSIGNED_CONTEXT ( ( #92, #91, #90 ) ) REPRESENTATION_CONTEXT ( 'NONE', 'WORKASPACE' ) );
#89 = UNCERTAINTY_MEASURE_WITH_UNIT (LENGTH_MEASURE( 1.000000000000000100E-005 ), #92, 'distance_accuracy_value', 'NONE');
#90 =( NAMED_UNIT ( * ) SI_UNIT ( $, .STERADIAN. ) SOLID_ANGLE_UNIT ( ) );
#91 =( NAMED_UNIT ( * ) PLANE_ANGLE_UNIT ( ) SI_UNIT ( $, .RADIAN. ) );
#92 =( LENGTH_UNIT ( ) NAMED_UNIT ( * ) SI_UNIT ( .MILLI., .METRE. ) );
#93 = MECHANICAL_DESIGN_GEOMETRIC_PRESENTATION_REPRESENTATION (  '', ( #95 ), #88 ) ;
#94 = PRESENTATION_LAYER_ASSIGNMENT (  '', '', ( #95 ) ) ;
#95 = STYLED_ITEM ( 'NONE', ( #96 ), #124 ) ;
#96 = PRESENTATION_STYLE_ASSIGNMENT (( #97 ) ) ;
#97 = SURFACE_STYLE_USAGE ( .BOTH. , #98 ) ;
#98 = SURFACE_SIDE_STYLE ('',( #99 ) ) ;
#99 = SURFACE_STYLE_FILL_AREA ( #100 ) ;
#100 = FILL_AREA_STYLE ('',( #107 ) ) ;
#101 = COLOUR_RGB ( '',0.9568627450980391500, 0.9490196078431372100, 0.9607843137254902200 ) ;
#102 = FACE_OUTER_BOUND ( 'NONE', #28, .T. ) ;
#103 = DIRECTION ( 'NONE',  ( -0.0000000000000000000, -0.0000000000000000000, 1.000000000000000000 ) ) ;
#104 = VECTOR ( 'NONE', #103, 1000.000000000000000 ) ;
#105 = CARTESIAN_POINT ( 'NONE',  ( 15.00000000000000000, 0.0000000000000000000, 4.308132045400366600 ) ) ;
#106 = LINE ( 'NONE', #105, #104 ) ;
#107 = FILL_AREA_STYLE_COLOUR ( '', #101 ) ;
#108 = DIRECTION ( 'NONE',  ( 1.000000000000000000, 0.0000000000000000000, 0.0000000000000000000 ) ) ;
#109 = DIRECTION ( 'NONE',  ( -0.0000000000000000000, -0.0000000000000000000, 1.000000000000000000 ) ) ;
#110 = CARTESIAN_POINT ( 'NONE',  ( 0.0000000000000000000, 0.0000000000000000000, -1.389999999999999700 ) ) ;
#111 = AXIS2_PLACEMENT_3D ( 'NONE', #110, #109, #108 ) ;
#112 = DIRECTION ( 'NONE',  ( 0.0000000000000000000, 1.000000000000000000, 0.0000000000000000000 ) ) ;
#113 = DIRECTION ( 'NONE',  ( -1.000000000000000000, 0.0000000000000000000, 0.0000000000000000000 ) ) ;
#114 = CARTESIAN_POINT ( 'NONE',  ( 0.0000000000000000000, 0.0000000000000000000, -101.6199999999999900 ) ) ;
#115 = AXIS2_PLACEMENT_3D ( 'NONE', #114, #113, #112 ) ;
#116 = CIRCLE ( 'NONE', #111, 15.00000000000000000 ) ;
#117 = SPHERICAL_SURFACE ( 'NONE', #115, 103.0099999999999900 ) ;
#118 =( GEOMETRIC_REPRESENTATION_CONTEXT ( 3 ) GLOBAL_UNCERTAINTY_ASSIGNED_CONTEXT ( ( #119 ) ) GLOBAL_UNIT_ASSIGNED_CONTEXT ( ( #65, #64, #120 ) ) REPRESENTATION_CONTEXT ( 'NONE', 'WORKASPACE' ) );
#119 = UNCERTAINTY_MEASURE_WITH_UNIT (LENGTH_MEASURE( 1.000000000000000100E-005 ), #65, 'distance_accuracy_value', 'NONE');
#120 =( NAMED_UNIT ( * ) SI_UNIT ( $, .STERADIAN. ) SOLID_ANGLE_UNIT ( ) );
#121 = EDGE_LOOP ( 'NONE', ( #122, #51, #50, #179, #182 ) ) ;
#122 = ORIENTED_EDGE ( 'NONE', *, *, #168, .T. ) ;
#123 = EDGE_CURVE ( 'NONE', #177, #181, #106, .T. ) ;
#124 = ADVANCED_FACE ( 'NONE', ( #102 ), #87, .T. ) ;
#125 = CARTESIAN_POINT ( 'NONE',  ( 0.0000000000000000000, 0.0000000000000000000, 0.2920213713770011300 ) ) ;
#126 = AXIS2_PLACEMENT_3D ( 'NONE', #125, #155, #154 ) ;
#127 = CIRCLE ( 'NONE', #126, 15.00000000000000200 ) ;
#128 = FILL_AREA_STYLE_COLOUR ( '', #152 ) ;
#129 = DIRECTION ( 'NONE',  ( 0.0000000000000000000, 0.0000000000000000000, -1.000000000000000000 ) ) ;
#130 = DIRECTION ( 'NONE',  ( 1.000000000000000000, 0.0000000000000000000, 0.0000000000000000000 ) ) ;
#131 = CARTESIAN_POINT ( 'NONE',  ( 0.0000000000000000000, 0.0000000000000000000, -101.6199999999999900 ) ) ;
#132 = AXIS2_PLACEMENT_3D ( 'NONE', #131, #130, #129 ) ;
#133 = CIRCLE ( 'NONE', #132, 103.0099999999999900 ) ;
#134 = CARTESIAN_POINT ( 'NONE',  ( 0.0000000000000000000, 6.307335025362153200E-015, 1.390000000000002300 ) ) ;
#135 = DIRECTION ( 'NONE',  ( -1.224606353822377300E-016, -1.000000000000000000, 0.0000000000000000000 ) ) ;
#136 = DIRECTION ( 'NONE',  ( -1.000000000000000000, 1.224606353822377300E-016, 0.0000000000000000000 ) ) ;
#137 = CARTESIAN_POINT ( 'NONE',  ( 0.0000000000000000000, 0.0000000000000000000, -101.6199999999999900 ) ) ;
#138 = AXIS2_PLACEMENT_3D ( 'NONE', #137, #136, #135 ) ;
#139 = DIRECTION ( 'NONE',  ( 0.0000000000000000000, 1.000000000000000000, 0.0000000000000000000 ) ) ;
#140 = DIRECTION ( 'NONE',  ( -1.000000000000000000, 0.0000000000000000000, 0.0000000000000000000 ) ) ;
#141 = CIRCLE ( 'NONE', #27, 15.00000000000000200 ) ;
#142 =( NAMED_UNIT ( * ) PLANE_ANGLE_UNIT ( ) SI_UNIT ( $, .RADIAN. ) );
#143 =( LENGTH_UNIT ( ) NAMED_UNIT ( * ) SI_UNIT ( .MILLI., .METRE. ) );
#144 = MECHANICAL_DESIGN_GEOMETRIC_PRESENTATION_REPRESENTATION (  '', ( #146 ), #46 ) ;
#145 = PRESENTATION_LAYER_ASSIGNMENT (  '', '', ( #146 ) ) ;
#146 = STYLED_ITEM ( 'NONE', ( #147 ), #166 ) ;
#147 = PRESENTATION_STYLE_ASSIGNMENT (( #148 ) ) ;
#148 = SURFACE_STYLE_USAGE ( .BOTH. , #149 ) ;
#149 = SURFACE_SIDE_STYLE ('',( #150 ) ) ;
#150 = SURFACE_STYLE_FILL_AREA ( #151 ) ;
#151 = FILL_AREA_STYLE ('',( #128 ) ) ;
#152 = COLOUR_RGB ( '',0.9568627450980391500, 0.9490196078431372100, 0.9607843137254902200 ) ;
#153 = FACE_OUTER_BOUND ( 'NONE', #121, .T. ) ;
#154 = DIRECTION ( 'NONE',  ( 1.000000000000000000, 0.0000000000000000000, 0.0000000000000000000 ) ) ;
#155 = DIRECTION ( 'NONE',  ( -0.0000000000000000000, -0.0000000000000000000, 1.000000000000000000 ) ) ;
#156 = EDGE_LOOP ( 'NONE', ( #55, #57, #183, #184 ) ) ;
#157 = PLANE ( 'NONE',  #39 ) ;
#158 =( GEOMETRIC_REPRESENTATION_CONTEXT ( 3 ) GLOBAL_UNCERTAINTY_ASSIGNED_CONTEXT ( ( #159 ) ) GLOBAL_UNIT_ASSIGNED_CONTEXT ( ( #19, #18, #17 ) ) REPRESENTATION_CONTEXT ( 'NONE', 'WORKASPACE' ) );
#159 = UNCERTAINTY_MEASURE_WITH_UNIT (LENGTH_MEASURE( 1.000000000000000100E-005 ), #19, 'distance_accuracy_value', 'NONE');
#160 = ORIENTED_EDGE ( 'NONE', *, *, #161, .T. ) ;
#161 = EDGE_CURVE ( 'NONE', #32, #162, #86, .T. ) ;
#162 = VERTEX_POINT ( 'NONE', #134 ) ;
#163 = ORIENTED_EDGE ( 'NONE', *, *, #164, .F. ) ;
#164 = EDGE_CURVE ( 'NONE', #54, #162, #133, .T. ) ;
#165 = EDGE_CURVE ( 'NONE', #32, #181, #127, .T. ) ;
#166 = ADVANCED_FACE ( 'NONE', ( #153 ), #16, .T. ) ;
#167 = MANIFOLD_SOLID_BREP ( 'NONE', #60 ) ;
#168 = EDGE_CURVE ( 'NONE', #177, #178, #207, .T. ) ;
#169 = MECHANICAL_DESIGN_GEOMETRIC_PRESENTATION_REPRESENTATION (  '', ( #171 ), #158 ) ;
#170 = PRESENTATION_LAYER_ASSIGNMENT (  '', '', ( #171 ) ) ;
#171 = STYLED_ITEM ( 'NONE', ( #172 ), #41 ) ;
#172 = PRESENTATION_STYLE_ASSIGNMENT (( #173 ) ) ;
#173 = SURFACE_STYLE_USAGE ( .BOTH. , #174 ) ;
#174 = SURFACE_SIDE_STYLE ('',( #175 ) ) ;
#175 = SURFACE_STYLE_FILL_AREA ( #176 ) ;
#176 = FILL_AREA_STYLE ('',( #20 ) ) ;
#177 = VERTEX_POINT ( 'NONE', #255 ) ;
#178 = VERTEX_POINT ( 'NONE', #188 ) ;
#179 = ORIENTED_EDGE ( 'NONE', *, *, #180, .F. ) ;
#180 = EDGE_CURVE ( 'NONE', #181, #54, #192, .T. ) ;
#181 = VERTEX_POINT ( 'NONE', #187 ) ;
#182 = ORIENTED_EDGE ( 'NONE', *, *, #123, .F. ) ;
#183 = ORIENTED_EDGE ( 'NONE', *, *, #180, .T. ) ;
#184 = ORIENTED_EDGE ( 'NONE', *, *, #164, .T. ) ;
#185 = ADVANCED_FACE ( 'NONE', ( #202 ), #213, .T. ) ;
#186 = EDGE_LOOP ( 'NONE', ( #58, #45, #43, #61, #59 ) ) ;
#187 = CARTESIAN_POINT ( 'NONE',  ( 15.00000000000000400, 0.0000000000000000000, 0.2920213713770011300 ) ) ;
#188 = CARTESIAN_POINT ( 'NONE',  ( -15.00000000000000000, 1.836909530733565900E-015, -1.389999999999999700 ) ) ;
#189 = DIRECTION ( 'NONE',  ( -0.0000000000000000000, -0.0000000000000000000, 1.000000000000000000 ) ) ;
#190 = CARTESIAN_POINT ( 'NONE',  ( 0.0000000000000000000, 0.0000000000000000000, 0.2920213713770011300 ) ) ;
#191 = AXIS2_PLACEMENT_3D ( 'NONE', #190, #189, #203 ) ;
#192 = CIRCLE ( 'NONE', #191, 15.00000000000000200 ) ;
#193 = DIRECTION ( 'NONE',  ( 0.0000000000000000000, 0.0000000000000000000, 1.000000000000000000 ) ) ;
#194 = DIRECTION ( 'NONE',  ( 1.000000000000000000, 0.0000000000000000000, 0.0000000000000000000 ) ) ;
#195 = AXIS2_PLACEMENT_3D ( 'NONE', #258, #193, #196 ) ;
#196 = DIRECTION ( 'NONE',  ( 1.000000000000000000, 0.0000000000000000000, 0.0000000000000000000 ) ) ;
#197 = DIRECTION ( 'NONE',  ( -0.0000000000000000000, -0.0000000000000000000, 1.000000000000000000 ) ) ;
#198 =( GEOMETRIC_REPRESENTATION_CONTEXT ( 3 ) GLOBAL_UNCERTAINTY_ASSIGNED_CONTEXT ( ( #252 ) ) GLOBAL_UNIT_ASSIGNED_CONTEXT ( ( #228, #204, #261 ) ) REPRESENTATION_CONTEXT ( 'NONE', 'WORKASPACE' ) );
#199 =( NAMED_UNIT ( * ) SI_UNIT ( $, .STERADIAN. ) SOLID_ANGLE_UNIT ( ) );
#200 = FILL_AREA_STYLE_COLOUR ( '', #201 ) ;
#201 = COLOUR_RGB ( '',0.9568627450980391500, 0.9490196078431372100, 0.9607843137254902200 ) ;
#202 = FACE_OUTER_BOUND ( 'NONE', #186, .T. ) ;
#203 = DIRECTION ( 'NONE',  ( 1.000000000000000000, 0.0000000000000000000, 0.0000000000000000000 ) ) ;
#204 =( NAMED_UNIT ( * ) PLANE_ANGLE_UNIT ( ) SI_UNIT ( $, .RADIAN. ) );
#205 = CARTESIAN_POINT ( 'NONE',  ( 0.0000000000000000000, 0.0000000000000000000, -1.389999999999999700 ) ) ;
#206 = AXIS2_PLACEMENT_3D ( 'NONE', #205, #226, #225 ) ;
#207 = CIRCLE ( 'NONE', #206, 15.00000000000000000 ) ;
#208 = APPLICATION_CONTEXT ( 'automotive_design' ) ;
#209 = ADVANCED_BREP_SHAPE_REPRESENTATION ( '19309-E0W', ( #167, #195 ), #260 ) ;
#210 = UNCERTAINTY_MEASURE_WITH_UNIT (LENGTH_MEASURE( 1.000000000000000100E-005 ), #1, 'distance_accuracy_value', 'NONE');
#211 =( LENGTH_UNIT ( ) NAMED_UNIT ( * ) SI_UNIT ( .MILLI., .METRE. ) );
#212 = MECHANICAL_DESIGN_GEOMETRIC_PRESENTATION_REPRESENTATION (  '', ( #244 ), #259 ) ;
#213 = CYLINDRICAL_SURFACE ( 'NONE', #215, 15.00000000000000000 ) ;
#214 = CARTESIAN_POINT ( 'NONE',  ( 0.0000000000000000000, 0.0000000000000000000, 4.308132045400366600 ) ) ;
#215 = AXIS2_PLACEMENT_3D ( 'NONE', #214, #197, #194 ) ;
#216 = STYLED_ITEM ( 'NONE', ( #217 ), #185 ) ;
#217 = PRESENTATION_STYLE_ASSIGNMENT (( #218 ) ) ;
#218 = SURFACE_STYLE_USAGE ( .BOTH. , #219 ) ;
#219 = SURFACE_SIDE_STYLE ('',( #220 ) ) ;
#220 = SURFACE_STYLE_FILL_AREA ( #221 ) ;
#221 = FILL_AREA_STYLE ('',( #200 ) ) ;
#222 = PRODUCT ( '19309-E0W', '19309-E0W', '', ( #223 ) ) ;
#223 = PRODUCT_CONTEXT ( 'NONE', #208, 'mechanical' ) ;
#224 = APPLICATION_PROTOCOL_DEFINITION ( 'draft international standard', 'automotive_design', 1998, #208 ) ;
#225 = DIRECTION ( 'NONE',  ( 1.000000000000000000, 0.0000000000000000000, 0.0000000000000000000 ) ) ;
#226 = DIRECTION ( 'NONE',  ( -0.0000000000000000000, -0.0000000000000000000, 1.000000000000000000 ) ) ;
#227 =( NAMED_UNIT ( * ) PLANE_ANGLE_UNIT ( ) SI_UNIT ( $, .RADIAN. ) );
#228 =( LENGTH_UNIT ( ) NAMED_UNIT ( * ) SI_UNIT ( .MILLI., .METRE. ) );
#229 = MECHANICAL_DESIGN_GEOMETRIC_PRESENTATION_REPRESENTATION (  '', ( #216 ), #198 ) ;
#230 = PRESENTATION_LAYER_ASSIGNMENT (  '', '', ( #216 ) ) ;
#231 = UNCERTAINTY_MEASURE_WITH_UNIT (LENGTH_MEASURE( 1.000000000000000100E-005 ), #211, 'distance_accuracy_value', 'NONE');
#232 =( NAMED_UNIT ( * ) SI_UNIT ( $, .STERADIAN. ) SOLID_ANGLE_UNIT ( ) );
#233 =( NAMED_UNIT ( * ) PLANE_ANGLE_UNIT ( ) SI_UNIT ( $, .RADIAN. ) );
#234 = PRODUCT_DEFINITION_SHAPE ( 'NONE', 'NONE',  #237 ) ;
#235 = PRODUCT_RELATED_PRODUCT_CATEGORY ( 'part', '', ( #222 ) ) ;
#236 = PRODUCT_DEFINITION_FORMATION_WITH_SPECIFIED_SOURCE ( 'ANY', '', #222, .NOT_KNOWN. ) ;
#237 = PRODUCT_DEFINITION ( 'UNKNOWN', '', #236, #238 ) ;
#238 = PRODUCT_DEFINITION_CONTEXT ( 'detailed design', #240, 'design' ) ;
#239 = APPLICATION_PROTOCOL_DEFINITION ( 'draft international standard', 'automotive_design', 1998, #240 ) ;
#240 = APPLICATION_CONTEXT ( 'automotive_design' ) ;
#241 = SHAPE_DEFINITION_REPRESENTATION ( #234, #209 ) ;
#242 =( GEOMETRIC_REPRESENTATION_CONTEXT ( 3 ) GLOBAL_UNCERTAINTY_ASSIGNED_CONTEXT ( ( #210 ) ) GLOBAL_UNIT_ASSIGNED_CONTEXT ( ( #1, #227, #199 ) ) REPRESENTATION_CONTEXT ( 'NONE', 'WORKASPACE' ) );
#243 = PRESENTATION_LAYER_ASSIGNMENT (  '', '', ( #244 ) ) ;
#244 = STYLED_ITEM ( 'NONE', ( #245 ), #209 ) ;
#245 = PRESENTATION_STYLE_ASSIGNMENT (( #246 ) ) ;
#246 = SURFACE_STYLE_USAGE ( .BOTH. , #247 ) ;
#247 = SURFACE_SIDE_STYLE ('',( #248 ) ) ;
#248 = SURFACE_STYLE_FILL_AREA ( #249 ) ;
#249 = FILL_AREA_STYLE ('',( #250 ) ) ;
#250 = FILL_AREA_STYLE_COLOUR ( '', #251 ) ;
#251 = COLOUR_RGB ( '',0.7960784313725489700, 0.8235294117647058400, 0.9372549019607843100 ) ;
#252 = UNCERTAINTY_MEASURE_WITH_UNIT (LENGTH_MEASURE( 1.000000000000000100E-005 ), #228, 'distance_accuracy_value', 'NONE');
#253 = UNCERTAINTY_MEASURE_WITH_UNIT (LENGTH_MEASURE( 1.000000000000000100E-005 ), #257, 'distance_accuracy_value', 'NONE');
#254 =( NAMED_UNIT ( * ) SI_UNIT ( $, .STERADIAN. ) SOLID_ANGLE_UNIT ( ) );
#255 = CARTESIAN_POINT ( 'NONE',  ( 15.00000000000000000, 0.0000000000000000000, -1.389999999999999700 ) ) ;
#256 =( NAMED_UNIT ( * ) PLANE_ANGLE_UNIT ( ) SI_UNIT ( $, .RADIAN. ) );
#257 =( LENGTH_UNIT ( ) NAMED_UNIT ( * ) SI_UNIT ( .MILLI., .METRE. ) );
#258 = CARTESIAN_POINT ( 'NONE',  ( 0.0000000000000000000, 0.0000000000000000000, 0.0000000000000000000 ) ) ;
#259 =( GEOMETRIC_REPRESENTATION_CONTEXT ( 3 ) GLOBAL_UNCERTAINTY_ASSIGNED_CONTEXT ( ( #231 ) ) GLOBAL_UNIT_ASSIGNED_CONTEXT ( ( #211, #233, #232 ) ) REPRESENTATION_CONTEXT ( 'NONE', 'WORKASPACE' ) );
#260 =( GEOMETRIC_REPRESENTATION_CONTEXT ( 3 ) GLOBAL_UNCERTAINTY_ASSIGNED_CONTEXT ( ( #253 ) ) GLOBAL_UNIT_ASSIGNED_CONTEXT ( ( #257, #256, #254 ) ) REPRESENTATION_CONTEXT ( 'NONE', 'WORKASPACE' ) );
#261 =( NAMED_UNIT ( * ) SI_UNIT ( $, .STERADIAN. ) SOLID_ANGLE_UNIT ( ) );
ENDSEC;
END-ISO-10303-21;
