ISO-10303-21;
HEADER;
FILE_DESCRIPTION (( 'STEP AP203' ),
    '1' );
FILE_NAME ('Web Model 47683_14805.step',
    '2020-10-07T17:26:03',
    ( '' ),
    ( '' ),
    'SwSTEP 2.0',
    'SolidWorks 2018',
    '' );
FILE_SCHEMA (( 'CONFIG_CONTROL_DESIGN' ));
ENDSEC;

DATA;
#1 = ORIENTED_EDGE ( 'NONE', *, *, #112, .F. ) ;
#2 = PERSON ( 'UNSPECIFIED', 'UNSPECIFIED', 'UNSPECIFIED', ('UNSPECIFIED'), ('UNSPECIFIED'), ('UNSPECIFIED') ) ;
#3 = DIRECTION ( 'NONE',  ( 1.000000000000000000, 0.0000000000000000000, 0.0000000000000000000 ) ) ;
#4 = AXIS2_PLACEMENT_3D ( 'NONE', #121, #94, #96 ) ;
#5 = ORIENTED_EDGE ( 'NONE', *, *, #104, .T. ) ;
#6 = DESIGN_CONTEXT ( 'detailed design', #67, 'design' ) ;
#7 = DIRECTION ( 'NONE',  ( -1.000000000000000000, 0.0000000000000000000, 0.0000000000000000000 ) ) ;
#8 = CARTESIAN_POINT ( 'NONE',  ( 0.0000000000000000000, 0.0000000000000000000, 1.500000000000000000 ) ) ;
#9 =( NAMED_UNIT ( * ) PLANE_ANGLE_UNIT ( ) SI_UNIT ( $, .RADIAN. ) );
#10 = APPLICATION_PROTOCOL_DEFINITION ( 'international standard', 'config_control_design', 1994, #67 ) ;
#11 = ORIENTED_EDGE ( 'NONE', *, *, #66, .F. ) ;
#12 = DIRECTION ( 'NONE',  ( -0.0000000000000000000, -0.0000000000000000000, -1.000000000000000000 ) ) ;
#13 =( LENGTH_UNIT ( ) NAMED_UNIT ( * ) SI_UNIT ( .MILLI., .METRE. ) );
#14 = CARTESIAN_POINT ( 'NONE',  ( 0.0000000000000000000, 0.0000000000000000000, -1.500000000000000000 ) ) ;
#15 = VECTOR ( 'NONE', #75, 1000.000000000000000 ) ;
#16 = APPROVAL_DATE_TIME ( #52, #170 ) ;
#17 = AXIS2_PLACEMENT_3D ( 'NONE', #168, #88, #128 ) ;
#18 = CC_DESIGN_DATE_AND_TIME_ASSIGNMENT ( #158, #71, ( #116 ) ) ;
#19 = VECTOR ( 'NONE', #12, 1000.000000000000000 ) ;
#20 = CC_DESIGN_PERSON_AND_ORGANIZATION_ASSIGNMENT ( #152, #108, ( #62 ) ) ;
#21 = PRODUCT ( 'Web Model 47683_14805', 'Web Model 47683_14805', '', ( #159 ) ) ;
#22 = CALENDAR_DATE ( 2020, 7, 10 ) ;
#23 = DIRECTION ( 'NONE',  ( 1.000000000000000000, 0.0000000000000000000, -0.0000000000000000000 ) ) ;
#24 = ORIENTED_EDGE ( 'NONE', *, *, #112, .T. ) ;
#25 = DIRECTION ( 'NONE',  ( -0.0000000000000000000, -0.0000000000000000000, -1.000000000000000000 ) ) ;
#26 = CIRCLE ( 'NONE', #81, 12.50000000000000000 ) ;
#27 = APPROVAL_PERSON_ORGANIZATION ( #35, #170, #175 ) ;
#28 = APPROVAL_STATUS ( 'not_yet_approved' ) ;
#29 = FACE_OUTER_BOUND ( 'NONE', #136, .T. ) ;
#30 = DATE_TIME_ROLE ( 'creation_date' ) ;
#31 = CARTESIAN_POINT ( 'NONE',  ( 12.50000000000000000, 1.530808498934191521E-15, 1.500000000000000000 ) ) ;
#32 = AXIS2_PLACEMENT_3D ( 'NONE', #8, #25, #7 ) ;
#33 = CC_DESIGN_APPROVAL ( #64, ( #116 ) ) ;
#34 = LOCAL_TIME ( 13, 26, 3.000000000000000000, #143 ) ;
#35 = PERSON_AND_ORGANIZATION ( #2, #172 ) ;
#36 = AXIS2_PLACEMENT_3D ( 'NONE', #115, #90, #106 ) ;
#37 = ORIENTED_EDGE ( 'NONE', *, *, #104, .F. ) ;
#38 = CC_DESIGN_SECURITY_CLASSIFICATION ( #116, ( #89 ) ) ;
#39 = AXIS2_PLACEMENT_3D ( 'NONE', #144, #126, #23 ) ;
#40 = SECURITY_CLASSIFICATION_LEVEL ( 'unclassified' ) ;
#41 = APPROVAL_ROLE ( '' ) ;
#42 = APPROVAL_ROLE ( '' ) ;
#43 = VERTEX_POINT ( 'NONE', #84 ) ;
#44 = PERSON_AND_ORGANIZATION_ROLE ( 'creator' ) ;
#45 = ORIENTED_EDGE ( 'NONE', *, *, #127, .T. ) ;
#46 = APPROVAL_DATE_TIME ( #173, #64 ) ;
#47 = CC_DESIGN_APPROVAL ( #74, ( #89 ) ) ;
#48 = CC_DESIGN_APPROVAL ( #170, ( #62 ) ) ;
#49 = APPROVAL_PERSON_ORGANIZATION ( #92, #74, #41 ) ;
#50 = DIRECTION ( 'NONE',  ( 0.0000000000000000000, 0.0000000000000000000, 1.000000000000000000 ) ) ;
#51 = DIRECTION ( 'NONE',  ( 0.0000000000000000000, 0.0000000000000000000, 1.000000000000000000 ) ) ;
#52 = DATE_AND_TIME ( #22, #118 ) ;
#53 =( NAMED_UNIT ( * ) SI_UNIT ( $, .STERADIAN. ) SOLID_ANGLE_UNIT ( ) );
#54 = PERSON_AND_ORGANIZATION ( #2, #172 ) ;
#55 = APPROVAL_STATUS ( 'not_yet_approved' ) ;
#56 = PLANE ( 'NONE',  #135 ) ;
#57 = PRODUCT_RELATED_PRODUCT_CATEGORY ( 'detail', '', ( #21 ) ) ;
#58 = CYLINDRICAL_SURFACE ( 'NONE', #17, 12.50000000000000000 ) ;
#59 = COORDINATED_UNIVERSAL_TIME_OFFSET ( 5, 0, .BEHIND. ) ;
#60 = CYLINDRICAL_SURFACE ( 'NONE', #32, 12.50000000000000000 ) ;
#61 = LOCAL_TIME ( 13, 26, 3.000000000000000000, #59 ) ;
#62 = PRODUCT_DEFINITION ( 'UNKNOWN', '', #89, #6 ) ;
#63 = ORIENTED_EDGE ( 'NONE', *, *, #93, .T. ) ;
#64 = APPROVAL ( #28, 'UNSPECIFIED' ) ;
#65 = DIRECTION ( 'NONE',  ( 1.000000000000000000, 0.0000000000000000000, 0.0000000000000000000 ) ) ;
#66 = EDGE_CURVE ( 'NONE', #148, #102, #150, .T. ) ;
#67 = APPLICATION_CONTEXT ( 'configuration controlled 3d designs of mechanical parts and assemblies' ) ;
#68 = PERSON_AND_ORGANIZATION ( #2, #172 ) ;
#69 = DIRECTION ( 'NONE',  ( 1.000000000000000000, 0.0000000000000000000, -0.0000000000000000000 ) ) ;
#70 = CARTESIAN_POINT ( 'NONE',  ( -12.50000000000000000, 0.0000000000000000000, -1.500000000000000000 ) ) ;
#71 = DATE_TIME_ROLE ( 'classification_date' ) ;
#72 =( GEOMETRIC_REPRESENTATION_CONTEXT ( 3 ) GLOBAL_UNCERTAINTY_ASSIGNED_CONTEXT ( ( #146 ) ) GLOBAL_UNIT_ASSIGNED_CONTEXT ( ( #13, #9, #53 ) ) REPRESENTATION_CONTEXT ( 'NONE', 'WORKASPACE' ) );
#73 = CIRCLE ( 'NONE', #162, 12.50000000000000000 ) ;
#74 = APPROVAL ( #80, 'UNSPECIFIED' ) ;
#75 = DIRECTION ( 'NONE',  ( -0.0000000000000000000, -0.0000000000000000000, -1.000000000000000000 ) ) ;
#76 = CLOSED_SHELL ( 'NONE', ( #114, #100, #98, #122 ) ) ;
#77 = CARTESIAN_POINT ( 'NONE',  ( 0.0000000000000000000, 0.0000000000000000000, -1.500000000000000000 ) ) ;
#78 = DIRECTION ( 'NONE',  ( 1.000000000000000000, 0.0000000000000000000, 0.0000000000000000000 ) ) ;
#79 = MANIFOLD_SOLID_BREP ( 'Boss-Extrude1', #76 ) ;
#80 = APPROVAL_STATUS ( 'not_yet_approved' ) ;
#81 = AXIS2_PLACEMENT_3D ( 'NONE', #14, #109, #65 ) ;
#82 = PERSON_AND_ORGANIZATION ( #2, #172 ) ;
#83 = LOCAL_TIME ( 13, 26, 3.000000000000000000, #161 ) ;
#84 = CARTESIAN_POINT ( 'NONE',  ( -12.50000000000000000, 0.0000000000000000000, 1.500000000000000000 ) ) ;
#85 = COORDINATED_UNIVERSAL_TIME_OFFSET ( 5, 0, .BEHIND. ) ;
#86 = CARTESIAN_POINT ( 'NONE',  ( 12.50000000000000000, 1.530808498934191521E-15, 1.500000000000000000 ) ) ;
#87 = PLANE ( 'NONE',  #39 ) ;
#88 = DIRECTION ( 'NONE',  ( -0.0000000000000000000, -0.0000000000000000000, -1.000000000000000000 ) ) ;
#89 = PRODUCT_DEFINITION_FORMATION_WITH_SPECIFIED_SOURCE ( 'ANY', '', #21, .NOT_KNOWN. ) ;
#90 = DIRECTION ( 'NONE',  ( 0.0000000000000000000, 0.0000000000000000000, 1.000000000000000000 ) ) ;
#91 = FACE_OUTER_BOUND ( 'NONE', #105, .T. ) ;
#92 = PERSON_AND_ORGANIZATION ( #2, #172 ) ;
#93 = EDGE_CURVE ( 'NONE', #43, #148, #140, .T. ) ;
#94 = DIRECTION ( 'NONE',  ( 0.0000000000000000000, 0.0000000000000000000, 1.000000000000000000 ) ) ;
#95 = LOCAL_TIME ( 13, 26, 3.000000000000000000, #139 ) ;
#96 = DIRECTION ( 'NONE',  ( 1.000000000000000000, 0.0000000000000000000, 0.0000000000000000000 ) ) ;
#97 = PERSON_AND_ORGANIZATION_ROLE ( 'classification_officer' ) ;
#98 = ADVANCED_FACE ( 'NONE', ( #129 ), #87, .T. ) ;
#99 = CALENDAR_DATE ( 2020, 7, 10 ) ;
#100 = ADVANCED_FACE ( 'NONE', ( #166 ), #60, .T. ) ;
#101 = APPROVAL_DATE_TIME ( #123, #74 ) ;
#102 = VERTEX_POINT ( 'NONE', #145 ) ;
#103 = CC_DESIGN_DATE_AND_TIME_ASSIGNMENT ( #125, #30, ( #62 ) ) ;
#104 = EDGE_CURVE ( 'NONE', #163, #102, #73, .T. ) ;
#105 = EDGE_LOOP ( 'NONE', ( #37, #171 ) ) ;
#106 = DIRECTION ( 'NONE',  ( 1.000000000000000000, 0.0000000000000000000, 0.0000000000000000000 ) ) ;
#107 = PERSON_AND_ORGANIZATION_ROLE ( 'design_supplier' ) ;
#108 = PERSON_AND_ORGANIZATION_ROLE ( 'creator' ) ;
#109 = DIRECTION ( 'NONE',  ( 0.0000000000000000000, 0.0000000000000000000, 1.000000000000000000 ) ) ;
#110 = PRODUCT_DEFINITION_SHAPE ( 'NONE', 'NONE',  #62 ) ;
#111 = CC_DESIGN_PERSON_AND_ORGANIZATION_ASSIGNMENT ( #134, #44, ( #89 ) ) ;
#112 = EDGE_CURVE ( 'NONE', #148, #43, #142, .T. ) ;
#113 = EDGE_LOOP ( 'NONE', ( #63, #24 ) ) ;
#114 = ADVANCED_FACE ( 'NONE', ( #29 ), #58, .T. ) ;
#115 = CARTESIAN_POINT ( 'NONE',  ( 0.0000000000000000000, 0.0000000000000000000, 1.500000000000000000 ) ) ;
#116 = SECURITY_CLASSIFICATION ( '', '', #40 ) ;
#117 = EDGE_CURVE ( 'NONE', #102, #163, #26, .T. ) ;
#118 = LOCAL_TIME ( 13, 26, 3.000000000000000000, #85 ) ;
#119 = EDGE_LOOP ( 'NONE', ( #11, #167, #45, #5 ) ) ;
#120 = APPLICATION_CONTEXT ( 'configuration controlled 3d designs of mechanical parts and assemblies' ) ;
#121 = CARTESIAN_POINT ( 'NONE',  ( 0.0000000000000000000, 0.0000000000000000000, 0.0000000000000000000 ) ) ;
#122 = ADVANCED_FACE ( 'NONE', ( #91 ), #56, .F. ) ;
#123 = DATE_AND_TIME ( #156, #61 ) ;
#124 = CALENDAR_DATE ( 2020, 7, 10 ) ;
#125 = DATE_AND_TIME ( #99, #83 ) ;
#126 = DIRECTION ( 'NONE',  ( 0.0000000000000000000, 0.0000000000000000000, 1.000000000000000000 ) ) ;
#127 = EDGE_CURVE ( 'NONE', #43, #163, #160, .T. ) ;
#128 = DIRECTION ( 'NONE',  ( -1.000000000000000000, 0.0000000000000000000, 0.0000000000000000000 ) ) ;
#129 = FACE_OUTER_BOUND ( 'NONE', #113, .T. ) ;
#130 = APPROVAL_PERSON_ORGANIZATION ( #68, #64, #42 ) ;
#131 = ADVANCED_BREP_SHAPE_REPRESENTATION ( 'Web Model 47683_14805', ( #79, #4 ), #72 ) ;
#132 = ORIENTED_EDGE ( 'NONE', *, *, #117, .T. ) ;
#133 = SHAPE_DEFINITION_REPRESENTATION ( #110, #131 ) ;
#134 = PERSON_AND_ORGANIZATION ( #2, #172 ) ;
#135 = AXIS2_PLACEMENT_3D ( 'NONE', #77, #50, #69 ) ;
#136 = EDGE_LOOP ( 'NONE', ( #1, #153, #132, #151 ) ) ;
#137 = PERSON_AND_ORGANIZATION ( #2, #172 ) ;
#138 = AXIS2_PLACEMENT_3D ( 'NONE', #141, #165, #3 ) ;
#139 = COORDINATED_UNIVERSAL_TIME_OFFSET ( 5, 0, .BEHIND. ) ;
#140 = CIRCLE ( 'NONE', #138, 12.50000000000000000 ) ;
#141 = CARTESIAN_POINT ( 'NONE',  ( 0.0000000000000000000, 0.0000000000000000000, 1.500000000000000000 ) ) ;
#142 = CIRCLE ( 'NONE', #36, 12.50000000000000000 ) ;
#143 = COORDINATED_UNIVERSAL_TIME_OFFSET ( 5, 0, .BEHIND. ) ;
#144 = CARTESIAN_POINT ( 'NONE',  ( 0.0000000000000000000, 0.0000000000000000000, 1.500000000000000000 ) ) ;
#145 = CARTESIAN_POINT ( 'NONE',  ( 12.50000000000000000, 1.530808498934191521E-15, -1.500000000000000000 ) ) ;
#146 = UNCERTAINTY_MEASURE_WITH_UNIT (LENGTH_MEASURE( 1.000000000000000082E-05 ), #13, 'distance_accuracy_value', 'NONE');
#147 = CARTESIAN_POINT ( 'NONE',  ( -12.50000000000000000, 0.0000000000000000000, 1.500000000000000000 ) ) ;
#148 = VERTEX_POINT ( 'NONE', #31 ) ;
#149 = CALENDAR_DATE ( 2020, 7, 10 ) ;
#150 = LINE ( 'NONE', #86, #15 ) ;
#151 = ORIENTED_EDGE ( 'NONE', *, *, #127, .F. ) ;
#152 = PERSON_AND_ORGANIZATION ( #2, #172 ) ;
#153 = ORIENTED_EDGE ( 'NONE', *, *, #66, .T. ) ;
#154 = CC_DESIGN_PERSON_AND_ORGANIZATION_ASSIGNMENT ( #82, #157, ( #21 ) ) ;
#155 = CARTESIAN_POINT ( 'NONE',  ( 0.0000000000000000000, 0.0000000000000000000, -1.500000000000000000 ) ) ;
#156 = CALENDAR_DATE ( 2020, 7, 10 ) ;
#157 = PERSON_AND_ORGANIZATION_ROLE ( 'design_owner' ) ;
#158 = DATE_AND_TIME ( #124, #34 ) ;
#159 = MECHANICAL_CONTEXT ( 'NONE', #120, 'mechanical' ) ;
#160 = LINE ( 'NONE', #147, #19 ) ;
#161 = COORDINATED_UNIVERSAL_TIME_OFFSET ( 5, 0, .BEHIND. ) ;
#162 = AXIS2_PLACEMENT_3D ( 'NONE', #155, #51, #78 ) ;
#163 = VERTEX_POINT ( 'NONE', #70 ) ;
#164 = CC_DESIGN_PERSON_AND_ORGANIZATION_ASSIGNMENT ( #137, #107, ( #89 ) ) ;
#165 = DIRECTION ( 'NONE',  ( 0.0000000000000000000, 0.0000000000000000000, 1.000000000000000000 ) ) ;
#166 = FACE_OUTER_BOUND ( 'NONE', #119, .T. ) ;
#167 = ORIENTED_EDGE ( 'NONE', *, *, #93, .F. ) ;
#168 = CARTESIAN_POINT ( 'NONE',  ( 0.0000000000000000000, 0.0000000000000000000, 1.500000000000000000 ) ) ;
#169 = APPLICATION_PROTOCOL_DEFINITION ( 'international standard', 'config_control_design', 1994, #120 ) ;
#170 = APPROVAL ( #55, 'UNSPECIFIED' ) ;
#171 = ORIENTED_EDGE ( 'NONE', *, *, #117, .F. ) ;
#172 = ORGANIZATION ( 'UNSPECIFIED', 'UNSPECIFIED', '' ) ;
#173 = DATE_AND_TIME ( #149, #95 ) ;
#174 = CC_DESIGN_PERSON_AND_ORGANIZATION_ASSIGNMENT ( #54, #97, ( #116 ) ) ;
#175 = APPROVAL_ROLE ( '' ) ;
ENDSEC;
END-ISO-10303-21;
