ISO-10303-21;
HEADER;
FILE_DESCRIPTION (( 'STEP AP203' ),
    '1' );
FILE_NAME ('Web Model 19627_19628.step',
    '2022-01-11T21:32:14',
    ( '' ),
    ( '' ),
    'SwSTEP 2.0',
    'SolidWorks 2018',
    '' );
FILE_SCHEMA (( 'CONFIG_CONTROL_DESIGN' ));
ENDSEC;

DATA;
#1 = PERSON_AND_ORGANIZATION ( #3, #149 ) ;
#2 = CARTESIAN_POINT ( 'NONE',  ( 25.39999999999999858, 3.110602869834276865E-15, 0.000000000000000000 ) ) ;
#3 = PERSON ( 'UNSPECIFIED', 'UNSPECIFIED', 'UNSPECIFIED', ('UNSPECIFIED'), ('UNSPECIFIED'), ('UNSPECIFIED') ) ;
#4 = PRODUCT_RELATED_PRODUCT_CATEGORY ( 'detail', '', ( #21 ) ) ;
#5 = CARTESIAN_POINT ( 'NONE',  ( 25.39999999999999858, 3.110602869834276865E-15, 1.520000000000000018 ) ) ;
#6 = ORIENTED_EDGE ( 'NONE', *, *, #38, .F. ) ;
#7 = CARTESIAN_POINT ( 'NONE',  ( 0.000000000000000000, 0.000000000000000000, 0.000000000000000000 ) ) ;
#8 = APPROVAL_DATE_TIME ( #152, #167 ) ;
#9 = PLANE ( 'NONE',  #84 ) ;
#10 = CC_DESIGN_APPROVAL ( #160, ( #150 ) ) ;
#11 = EDGE_LOOP ( 'NONE', ( #104, #6, #72, #151 ) ) ;
#12 = CALENDAR_DATE ( 2022, 11, 1 ) ;
#13 = AXIS2_PLACEMENT_3D ( 'NONE', #25, #130, #79 ) ;
#14 = COORDINATED_UNIVERSAL_TIME_OFFSET ( 5, 0, .BEHIND. ) ;
#15 = APPROVAL_DATE_TIME ( #55, #160 ) ;
#16 = APPROVAL ( #158, 'UNSPECIFIED' ) ;
#17 = APPROVAL_DATE_TIME ( #59, #16 ) ;
#18 = DIRECTION ( 'NONE',  ( -0.000000000000000000, -0.000000000000000000, -1.000000000000000000 ) ) ;
#19 = PLANE ( 'NONE',  #171 ) ;
#20 = DIRECTION ( 'NONE',  ( 1.000000000000000000, 0.000000000000000000, -0.000000000000000000 ) ) ;
#21 = PRODUCT ( 'Web Model 19627_19628', 'Web Model 19627_19628', '', ( #146 ) ) ;
#22 = EDGE_CURVE ( 'NONE', #116, #23, #60, .T. ) ;
#23 = VERTEX_POINT ( 'NONE', #2 ) ;
#24 = PERSON_AND_ORGANIZATION ( #3, #149 ) ;
#25 = CARTESIAN_POINT ( 'NONE',  ( 0.000000000000000000, 0.000000000000000000, 1.520000000000000018 ) ) ;
#26 = DIRECTION ( 'NONE',  ( 1.000000000000000000, 0.000000000000000000, 0.000000000000000000 ) ) ;
#27 = COORDINATED_UNIVERSAL_TIME_OFFSET ( 5, 0, .BEHIND. ) ;
#28 = COORDINATED_UNIVERSAL_TIME_OFFSET ( 5, 0, .BEHIND. ) ;
#29 = AXIS2_PLACEMENT_3D ( 'NONE', #77, #92, #170 ) ;
#30 = PRODUCT_DEFINITION_SHAPE ( 'NONE', 'NONE',  #173 ) ;
#31 = LOCAL_TIME ( 16, 32, 14.00000000000000000, #65 ) ;
#32 = ADVANCED_FACE ( 'NONE', ( #67 ), #112, .T. ) ;
#33 = CC_DESIGN_PERSON_AND_ORGANIZATION_ASSIGNMENT ( #119, #120, ( #21 ) ) ;
#34 = EDGE_LOOP ( 'NONE', ( #58, #82, #147, #174 ) ) ;
#35 = DIRECTION ( 'NONE',  ( -0.000000000000000000, -0.000000000000000000, -1.000000000000000000 ) ) ;
#36 = APPROVAL_ROLE ( '' ) ;
#37 = DIRECTION ( 'NONE',  ( -0.000000000000000000, -0.000000000000000000, -1.000000000000000000 ) ) ;
#38 = EDGE_CURVE ( 'NONE', #169, #116, #90, .T. ) ;
#39 = FACE_OUTER_BOUND ( 'NONE', #74, .T. ) ;
#40 = CARTESIAN_POINT ( 'NONE',  ( -25.39999999999999858, 0.000000000000000000, 1.520000000000000018 ) ) ;
#41 = DIRECTION ( 'NONE',  ( 0.000000000000000000, 0.000000000000000000, 1.000000000000000000 ) ) ;
#42 = CIRCLE ( 'NONE', #153, 25.39999999999999858 ) ;
#43 = CALENDAR_DATE ( 2022, 11, 1 ) ;
#44 = ADVANCED_FACE ( 'NONE', ( #127 ), #69, .T. ) ;
#45 = ORIENTED_EDGE ( 'NONE', *, *, #73, .F. ) ;
#46 =( GEOMETRIC_REPRESENTATION_CONTEXT ( 3 ) GLOBAL_UNCERTAINTY_ASSIGNED_CONTEXT ( ( #103 ) ) GLOBAL_UNIT_ASSIGNED_CONTEXT ( ( #172, #111, #132 ) ) REPRESENTATION_CONTEXT ( 'NONE', 'WORKASPACE' ) );
#47 = VECTOR ( 'NONE', #18, 1000.000000000000000 ) ;
#48 = PERSON_AND_ORGANIZATION_ROLE ( 'classification_officer' ) ;
#49 = CIRCLE ( 'NONE', #13, 25.39999999999999858 ) ;
#50 = APPLICATION_PROTOCOL_DEFINITION ( 'international standard', 'config_control_design', 1994, #66 ) ;
#51 = DIRECTION ( 'NONE',  ( -0.000000000000000000, -0.000000000000000000, -1.000000000000000000 ) ) ;
#52 = CARTESIAN_POINT ( 'NONE',  ( 0.000000000000000000, 0.000000000000000000, 0.000000000000000000 ) ) ;
#53 = APPLICATION_PROTOCOL_DEFINITION ( 'international standard', 'config_control_design', 1994, #93 ) ;
#54 = CALENDAR_DATE ( 2022, 11, 1 ) ;
#55 = DATE_AND_TIME ( #157, #31 ) ;
#56 = VERTEX_POINT ( 'NONE', #121 ) ;
#57 = PERSON_AND_ORGANIZATION ( #3, #149 ) ;
#58 = ORIENTED_EDGE ( 'NONE', *, *, #140, .F. ) ;
#59 = DATE_AND_TIME ( #54, #87 ) ;
#60 = LINE ( 'NONE', #164, #47 ) ;
#61 = PERSON_AND_ORGANIZATION_ROLE ( 'creator' ) ;
#62 = ADVANCED_BREP_SHAPE_REPRESENTATION ( 'Web Model 19627_19628', ( #126, #29 ), #46 ) ;
#63 = CARTESIAN_POINT ( 'NONE',  ( 0.000000000000000000, 0.000000000000000000, 1.520000000000000018 ) ) ;
#64 = DIRECTION ( 'NONE',  ( 0.000000000000000000, 0.000000000000000000, 1.000000000000000000 ) ) ;
#65 = COORDINATED_UNIVERSAL_TIME_OFFSET ( 5, 0, .BEHIND. ) ;
#66 = APPLICATION_CONTEXT ( 'configuration controlled 3d designs of mechanical parts and assemblies' ) ;
#67 = FACE_OUTER_BOUND ( 'NONE', #34, .T. ) ;
#68 = CC_DESIGN_PERSON_AND_ORGANIZATION_ASSIGNMENT ( #24, #61, ( #150 ) ) ;
#69 = CYLINDRICAL_SURFACE ( 'NONE', #142, 25.39999999999999858 ) ;
#70 = CC_DESIGN_APPROVAL ( #167, ( #96 ) ) ;
#71 = CC_DESIGN_APPROVAL ( #16, ( #173 ) ) ;
#72 = ORIENTED_EDGE ( 'NONE', *, *, #83, .T. ) ;
#73 = EDGE_CURVE ( 'NONE', #56, #23, #106, .T. ) ;
#74 = EDGE_LOOP ( 'NONE', ( #45, #148 ) ) ;
#75 = DATE_TIME_ROLE ( 'classification_date' ) ;
#76 = CC_DESIGN_PERSON_AND_ORGANIZATION_ASSIGNMENT ( #175, #129, ( #150 ) ) ;
#77 = CARTESIAN_POINT ( 'NONE',  ( 0.000000000000000000, 0.000000000000000000, 0.000000000000000000 ) ) ;
#78 = FACE_OUTER_BOUND ( 'NONE', #162, .T. ) ;
#79 = DIRECTION ( 'NONE',  ( 1.000000000000000000, 0.000000000000000000, 0.000000000000000000 ) ) ;
#80 = DIRECTION ( 'NONE',  ( 0.000000000000000000, 0.000000000000000000, 1.000000000000000000 ) ) ;
#81 = PERSON_AND_ORGANIZATION_ROLE ( 'creator' ) ;
#82 = ORIENTED_EDGE ( 'NONE', *, *, #22, .T. ) ;
#83 = EDGE_CURVE ( 'NONE', #169, #56, #165, .T. ) ;
#84 = AXIS2_PLACEMENT_3D ( 'NONE', #52, #109, #144 ) ;
#85 = ORIENTED_EDGE ( 'NONE', *, *, #38, .T. ) ;
#86 = LOCAL_TIME ( 16, 32, 14.00000000000000000, #98 ) ;
#87 = LOCAL_TIME ( 16, 32, 14.00000000000000000, #14 ) ;
#88 = DESIGN_CONTEXT ( 'detailed design', #66, 'design' ) ;
#89 = CC_DESIGN_PERSON_AND_ORGANIZATION_ASSIGNMENT ( #57, #81, ( #173 ) ) ;
#90 = CIRCLE ( 'NONE', #113, 25.39999999999999858 ) ;
#91 = APPROVAL_ROLE ( '' ) ;
#92 = DIRECTION ( 'NONE',  ( 0.000000000000000000, 0.000000000000000000, 1.000000000000000000 ) ) ;
#93 = APPLICATION_CONTEXT ( 'configuration controlled 3d designs of mechanical parts and assemblies' ) ;
#94 = PERSON_AND_ORGANIZATION ( #3, #149 ) ;
#95 = DATE_TIME_ROLE ( 'creation_date' ) ;
#96 = SECURITY_CLASSIFICATION ( '', '', #155 ) ;
#97 = APPROVAL_PERSON_ORGANIZATION ( #94, #160, #36 ) ;
#98 = COORDINATED_UNIVERSAL_TIME_OFFSET ( 5, 0, .BEHIND. ) ;
#99 = ADVANCED_FACE ( 'NONE', ( #78 ), #19, .T. ) ;
#100 = ADVANCED_FACE ( 'NONE', ( #39 ), #9, .F. ) ;
#101 = VECTOR ( 'NONE', #37, 1000.000000000000000 ) ;
#102 = LOCAL_TIME ( 16, 32, 14.00000000000000000, #28 ) ;
#103 = UNCERTAINTY_MEASURE_WITH_UNIT (LENGTH_MEASURE( 1.000000000000000082E-05 ), #172, 'distance_accuracy_value', 'NONE');
#104 = ORIENTED_EDGE ( 'NONE', *, *, #22, .F. ) ;
#105 = CARTESIAN_POINT ( 'NONE',  ( 0.000000000000000000, 0.000000000000000000, 1.520000000000000018 ) ) ;
#106 = CIRCLE ( 'NONE', #145, 25.39999999999999858 ) ;
#107 = APPROVAL_STATUS ( 'not_yet_approved' ) ;
#108 = CARTESIAN_POINT ( 'NONE',  ( 0.000000000000000000, 0.000000000000000000, 0.000000000000000000 ) ) ;
#109 = DIRECTION ( 'NONE',  ( 0.000000000000000000, 0.000000000000000000, 1.000000000000000000 ) ) ;
#110 = ORIENTED_EDGE ( 'NONE', *, *, #140, .T. ) ;
#111 =( NAMED_UNIT ( * ) PLANE_ANGLE_UNIT ( ) SI_UNIT ( $, .RADIAN. ) );
#112 = CYLINDRICAL_SURFACE ( 'NONE', #138, 25.39999999999999858 ) ;
#113 = AXIS2_PLACEMENT_3D ( 'NONE', #143, #80, #26 ) ;
#114 = CC_DESIGN_DATE_AND_TIME_ASSIGNMENT ( #134, #75, ( #96 ) ) ;
#115 = CC_DESIGN_PERSON_AND_ORGANIZATION_ASSIGNMENT ( #123, #48, ( #96 ) ) ;
#116 = VERTEX_POINT ( 'NONE', #5 ) ;
#117 = DIRECTION ( 'NONE',  ( -1.000000000000000000, 0.000000000000000000, 0.000000000000000000 ) ) ;
#118 = CC_DESIGN_SECURITY_CLASSIFICATION ( #96, ( #150 ) ) ;
#119 = PERSON_AND_ORGANIZATION ( #3, #149 ) ;
#120 = PERSON_AND_ORGANIZATION_ROLE ( 'design_owner' ) ;
#121 = CARTESIAN_POINT ( 'NONE',  ( -25.39999999999999858, 0.000000000000000000, 0.000000000000000000 ) ) ;
#122 = DIRECTION ( 'NONE',  ( -1.000000000000000000, 0.000000000000000000, 0.000000000000000000 ) ) ;
#123 = PERSON_AND_ORGANIZATION ( #3, #149 ) ;
#124 = CALENDAR_DATE ( 2022, 11, 1 ) ;
#125 = EDGE_CURVE ( 'NONE', #23, #56, #42, .T. ) ;
#126 = MANIFOLD_SOLID_BREP ( 'Boss-Extrude1', #139 ) ;
#127 = FACE_OUTER_BOUND ( 'NONE', #11, .T. ) ;
#128 = DATE_AND_TIME ( #124, #133 ) ;
#129 = PERSON_AND_ORGANIZATION_ROLE ( 'design_supplier' ) ;
#130 = DIRECTION ( 'NONE',  ( 0.000000000000000000, 0.000000000000000000, 1.000000000000000000 ) ) ;
#131 = APPROVAL_STATUS ( 'not_yet_approved' ) ;
#132 =( NAMED_UNIT ( * ) SI_UNIT ( $, .STERADIAN. ) SOLID_ANGLE_UNIT ( ) );
#133 = LOCAL_TIME ( 16, 32, 14.00000000000000000, #27 ) ;
#134 = DATE_AND_TIME ( #43, #86 ) ;
#135 = CARTESIAN_POINT ( 'NONE',  ( -25.39999999999999858, 0.000000000000000000, 1.520000000000000018 ) ) ;
#136 = CC_DESIGN_DATE_AND_TIME_ASSIGNMENT ( #128, #95, ( #173 ) ) ;
#137 = APPROVAL_PERSON_ORGANIZATION ( #1, #167, #159 ) ;
#138 = AXIS2_PLACEMENT_3D ( 'NONE', #105, #35, #117 ) ;
#139 = CLOSED_SHELL ( 'NONE', ( #32, #44, #99, #100 ) ) ;
#140 = EDGE_CURVE ( 'NONE', #116, #169, #49, .T. ) ;
#141 = SHAPE_DEFINITION_REPRESENTATION ( #30, #62 ) ;
#142 = AXIS2_PLACEMENT_3D ( 'NONE', #154, #51, #122 ) ;
#143 = CARTESIAN_POINT ( 'NONE',  ( 0.000000000000000000, 0.000000000000000000, 1.520000000000000018 ) ) ;
#144 = DIRECTION ( 'NONE',  ( 1.000000000000000000, 0.000000000000000000, -0.000000000000000000 ) ) ;
#145 = AXIS2_PLACEMENT_3D ( 'NONE', #7, #168, #156 ) ;
#146 = MECHANICAL_CONTEXT ( 'NONE', #93, 'mechanical' ) ;
#147 = ORIENTED_EDGE ( 'NONE', *, *, #125, .T. ) ;
#148 = ORIENTED_EDGE ( 'NONE', *, *, #125, .F. ) ;
#149 = ORGANIZATION ( 'UNSPECIFIED', 'UNSPECIFIED', '' ) ;
#150 = PRODUCT_DEFINITION_FORMATION_WITH_SPECIFIED_SOURCE ( 'ANY', '', #21, .NOT_KNOWN. ) ;
#151 = ORIENTED_EDGE ( 'NONE', *, *, #73, .T. ) ;
#152 = DATE_AND_TIME ( #12, #102 ) ;
#153 = AXIS2_PLACEMENT_3D ( 'NONE', #108, #64, #166 ) ;
#154 = CARTESIAN_POINT ( 'NONE',  ( 0.000000000000000000, 0.000000000000000000, 1.520000000000000018 ) ) ;
#155 = SECURITY_CLASSIFICATION_LEVEL ( 'unclassified' ) ;
#156 = DIRECTION ( 'NONE',  ( 1.000000000000000000, 0.000000000000000000, 0.000000000000000000 ) ) ;
#157 = CALENDAR_DATE ( 2022, 11, 1 ) ;
#158 = APPROVAL_STATUS ( 'not_yet_approved' ) ;
#159 = APPROVAL_ROLE ( '' ) ;
#160 = APPROVAL ( #107, 'UNSPECIFIED' ) ;
#161 = PERSON_AND_ORGANIZATION ( #3, #149 ) ;
#162 = EDGE_LOOP ( 'NONE', ( #85, #110 ) ) ;
#163 = APPROVAL_PERSON_ORGANIZATION ( #161, #16, #91 ) ;
#164 = CARTESIAN_POINT ( 'NONE',  ( 25.39999999999999858, 3.110602869834276865E-15, 1.520000000000000018 ) ) ;
#165 = LINE ( 'NONE', #40, #101 ) ;
#166 = DIRECTION ( 'NONE',  ( 1.000000000000000000, 0.000000000000000000, 0.000000000000000000 ) ) ;
#167 = APPROVAL ( #131, 'UNSPECIFIED' ) ;
#168 = DIRECTION ( 'NONE',  ( 0.000000000000000000, 0.000000000000000000, 1.000000000000000000 ) ) ;
#169 = VERTEX_POINT ( 'NONE', #135 ) ;
#170 = DIRECTION ( 'NONE',  ( 1.000000000000000000, 0.000000000000000000, 0.000000000000000000 ) ) ;
#171 = AXIS2_PLACEMENT_3D ( 'NONE', #63, #41, #20 ) ;
#172 =( LENGTH_UNIT ( ) NAMED_UNIT ( * ) SI_UNIT ( .MILLI., .METRE. ) );
#173 = PRODUCT_DEFINITION ( 'UNKNOWN', '', #150, #88 ) ;
#174 = ORIENTED_EDGE ( 'NONE', *, *, #83, .F. ) ;
#175 = PERSON_AND_ORGANIZATION ( #3, #149 ) ;
ENDSEC;
END-ISO-10303-21;
