ISO-10303-21;
HEADER;
FILE_DESCRIPTION (( 'STEP AP214' ),
    '1' );
FILE_NAME ('20098.step',
    '2022-07-08T19:02:58',
    ( '' ),
    ( '' ),
    'SwSTEP 2.0',
    'SolidWorks 2021',
    '' );
FILE_SCHEMA (( 'AUTOMOTIVE_DESIGN' ));
ENDSEC;

DATA;
#1 = APPLICATION_PROTOCOL_DEFINITION ( 'draft international standard', 'automotive_design', 1998, #175 ) ;
#2 = APPLICATION_PROTOCOL_DEFINITION ( 'draft international standard', 'automotive_design', 1998, #241 ) ;
#3 = CARTESIAN_POINT ( 'NONE',  ( 25.00000000000000000, -35.35533905932769017, -35.35533905932705778 ) ) ;
#4 = STYLED_ITEM ( 'NONE', ( #202 ), #141 ) ;
#5 = PRODUCT ( '49004', '49004', '', ( #73 ) ) ;
#6 = VECTOR ( 'NONE', #207, 1000.000000000000000 ) ;
#7 = PRODUCT_DEFINITION_SHAPE ( 'NONE', 'NONE',  #120 ) ;
#8 = UNCERTAINTY_MEASURE_WITH_UNIT (LENGTH_MEASURE( 1.000000000000000082E-05 ), #106, 'distance_accuracy_value', 'NONE');
#9 = PRODUCT_DEFINITION_FORMATION_WITH_SPECIFIED_SOURCE ( 'ANY', '', #5, .NOT_KNOWN. ) ;
#10 = DIRECTION ( 'NONE',  ( 1.000000000000000000, 0.000000000000000000, -0.000000000000000000 ) ) ;
#11 = ORIENTED_EDGE ( 'NONE', *, *, #143, .F. ) ;
#12 = LINE ( 'NONE', #89, #43 ) ;
#13 = ORIENTED_EDGE ( 'NONE', *, *, #123, .F. ) ;
#14 = AXIS2_PLACEMENT_3D ( 'NONE', #71, #191, #167 ) ;
#15 =( NAMED_UNIT ( * ) PLANE_ANGLE_UNIT ( ) SI_UNIT ( $, .RADIAN. ) );
#16 = LINE ( 'NONE', #188, #215 ) ;
#17 =( NAMED_UNIT ( * ) SI_UNIT ( $, .STERADIAN. ) SOLID_ANGLE_UNIT ( ) );
#18 = CARTESIAN_POINT ( 'NONE',  ( -25.00000000000000000, 0.000000000000000000, 0.000000000000000000 ) ) ;
#19 = CARTESIAN_POINT ( 'NONE',  ( 0.000000000000000000, 0.000000000000000000, 0.000000000000000000 ) ) ;
#20 = LINE ( 'NONE', #74, #110 ) ;
#21 = CARTESIAN_POINT ( 'NONE',  ( 25.00000000000000000, -35.35533905932769727, 35.35533905932805254 ) ) ;
#22 = MANIFOLD_SOLID_BREP ( 'Boss-Extrude1', #87 ) ;
#23 = ORIENTED_EDGE ( 'NONE', *, *, #174, .F. ) ;
#24 = AXIS2_PLACEMENT_3D ( 'NONE', #21, #79, #172 ) ;
#25 = DIRECTION ( 'NONE',  ( -0.000000000000000000, 0.000000000000000000, -1.000000000000000000 ) ) ;
#26 = ORIENTED_EDGE ( 'NONE', *, *, #178, .T. ) ;
#27 = EDGE_CURVE ( 'NONE', #102, #173, #128, .T. ) ;
#28 = VERTEX_POINT ( 'NONE', #118 ) ;
#29 = FACE_OUTER_BOUND ( 'NONE', #248, .T. ) ;
#30 = CARTESIAN_POINT ( 'NONE',  ( -25.00000000000000000, 0.000000000000000000, 0.000000000000000000 ) ) ;
#31 =( NAMED_UNIT ( * ) SI_UNIT ( $, .STERADIAN. ) SOLID_ANGLE_UNIT ( ) );
#32 = DIRECTION ( 'NONE',  ( -0.000000000000000000, 0.000000000000000000, -1.000000000000000000 ) ) ;
#33 = PRODUCT_DEFINITION_FORMATION_WITH_SPECIFIED_SOURCE ( 'ANY', '', #40, .NOT_KNOWN. ) ;
#34 = ITEM_DEFINED_TRANSFORMATION ( 'NONE', 'NONE', #151,  #98 ) ;
#35 = STYLED_ITEM ( 'NONE', ( #81 ), #22 ) ;
#36 = PRODUCT_CONTEXT ( 'NONE', #67, 'mechanical' ) ;
#37 = UNCERTAINTY_MEASURE_WITH_UNIT (LENGTH_MEASURE( 1.000000000000000082E-05 ), #63, 'distance_accuracy_value', 'NONE');
#38 = CARTESIAN_POINT ( 'NONE',  ( 25.00000000000000000, 0.000000000000000000, 0.000000000000000000 ) ) ;
#39 = APPLICATION_PROTOCOL_DEFINITION ( 'draft international standard', 'automotive_design', 1998, #192 ) ;
#40 = PRODUCT ( '20098', '20098', '', ( #36 ) ) ;
#41 = DIRECTION ( 'NONE',  ( 0.000000000000000000, -0.7071067811865537900, -0.7071067811865412445 ) ) ;
#42 = DIRECTION ( 'NONE',  ( 1.000000000000000000, 0.000000000000000000, 0.000000000000000000 ) ) ;
#43 = VECTOR ( 'NONE', #72, 1000.000000000000000 ) ;
#44 = DIRECTION ( 'NONE',  ( 0.000000000000000000, -0.7071067811865511255, -0.7071067811865440200 ) ) ;
#45 = SURFACE_STYLE_USAGE ( .BOTH. , #251 ) ;
#46 = FILL_AREA_STYLE_COLOUR ( '', #109 ) ;
#47 = DIRECTION ( 'NONE',  ( 1.638567028770032740E-16, -0.7071067811865439090, -0.7071067811865511255 ) ) ;
#48 = CARTESIAN_POINT ( 'NONE',  ( 24.99999999999999289, 50.00000000000018474, -50.00000000000072475 ) ) ;
#49 = CARTESIAN_POINT ( 'NONE',  ( 0.000000000000000000, 0.000000000000000000, 0.000000000000000000 ) ) ;
#50 = DIRECTION ( 'NONE',  ( 0.000000000000000000, -0.7071067811865440200, 0.7071067811865511255 ) ) ;
#51 = SHAPE_DEFINITION_REPRESENTATION ( #197, #142 ) ;
#52 = PLANE ( 'NONE',  #224 ) ;
#53 = AXIS2_PLACEMENT_3D ( 'NONE', #61, #47, #136 ) ;
#54 = PRODUCT_DEFINITION_SHAPE ( 'NONE', 'NONE',  #257 ) ;
#55 = VECTOR ( 'NONE', #209, 1000.000000000000114 ) ;
#56 = ORIENTED_EDGE ( 'NONE', *, *, #125, .T. ) ;
#57 = PRODUCT_DEFINITION_SHAPE ( 'NONE', 'NONE',  #129 ) ;
#58 = ORIENTED_EDGE ( 'NONE', *, *, #123, .T. ) ;
#59 = ORIENTED_EDGE ( 'NONE', *, *, #125, .F. ) ;
#60 = CARTESIAN_POINT ( 'NONE',  ( 0.000000000000000000, 0.000000000000000000, 0.000000000000000000 ) ) ;
#61 = CARTESIAN_POINT ( 'NONE',  ( 25.00000000000000355, 1.497303506125566238E-14, -6.938893903907228378E-15 ) ) ;
#62 = PLANE ( 'NONE',  #233 ) ;
#63 =( LENGTH_UNIT ( ) NAMED_UNIT ( * ) SI_UNIT ( .MILLI., .METRE. ) );
#64 = EDGE_CURVE ( 'NONE', #28, #99, #20, .T. ) ;
#65 = EDGE_CURVE ( 'NONE', #173, #203, #170, .T. ) ;
#66 = CONTEXT_DEPENDENT_SHAPE_REPRESENTATION ( #249, #54 ) ;
#67 = APPLICATION_CONTEXT ( 'automotive_design' ) ;
#68 = PRODUCT_RELATED_PRODUCT_CATEGORY ( 'part', '', ( #140 ) ) ;
#69 =( NAMED_UNIT ( * ) SI_UNIT ( $, .STERADIAN. ) SOLID_ANGLE_UNIT ( ) );
#70 = DIRECTION ( 'NONE',  ( 0.000000000000000000, 9.813077866773543947E-17, -1.000000000000000000 ) ) ;
#71 = CARTESIAN_POINT ( 'NONE',  ( 0.000000000000000000, 0.000000000000000000, 0.000000000000000000 ) ) ;
#72 = DIRECTION ( 'NONE',  ( -1.000000000000000000, -0.000000000000000000, -0.000000000000000000 ) ) ;
#73 = PRODUCT_CONTEXT ( 'NONE', #165, 'mechanical' ) ;
#74 = CARTESIAN_POINT ( 'NONE',  ( 25.00000000000000000, -35.35533905932769727, 35.35533905932805254 ) ) ;
#75 = PRODUCT_DEFINITION_CONTEXT ( 'detailed design', #175, 'design' ) ;
#76 = PRODUCT_DEFINITION_FORMATION_WITH_SPECIFIED_SOURCE ( 'ANY', '', #166, .NOT_KNOWN. ) ;
#77 = APPLICATION_PROTOCOL_DEFINITION ( 'draft international standard', 'automotive_design', 1998, #147 ) ;
#78 = AXIS2_PLACEMENT_3D ( 'NONE', #219, #218, #32 ) ;
#79 = DIRECTION ( 'NONE',  ( -0.000000000000000000, 1.000000000000000000, 9.813077866773543947E-17 ) ) ;
#80 = CARTESIAN_POINT ( 'NONE',  ( 25.00000000000000000, 0.000000000000000000, 0.000000000000000000 ) ) ;
#81 = PRESENTATION_STYLE_ASSIGNMENT (( #45 ) ) ;
#82 = ORIENTED_EDGE ( 'NONE', *, *, #27, .T. ) ;
#83 = ORIENTED_EDGE ( 'NONE', *, *, #174, .T. ) ;
#84 = SURFACE_STYLE_FILL_AREA ( #195 ) ;
#85 = EDGE_LOOP ( 'NONE', ( #56, #26, #126 ) ) ;
#86 = SHAPE_REPRESENTATION ( '49004', ( #98, #53, #179 ), #90 ) ;
#87 = CLOSED_SHELL ( 'NONE', ( #91, #228, #115, #223, #158 ) ) ;
#88 =( NAMED_UNIT ( * ) PLANE_ANGLE_UNIT ( ) SI_UNIT ( $, .RADIAN. ) );
#89 = CARTESIAN_POINT ( 'NONE',  ( 25.00000000000000000, -35.35533905932769727, 35.35533905932805254 ) ) ;
#90 =( GEOMETRIC_REPRESENTATION_CONTEXT ( 3 ) GLOBAL_UNCERTAINTY_ASSIGNED_CONTEXT ( ( #95 ) ) GLOBAL_UNIT_ASSIGNED_CONTEXT ( ( #205, #88, #17 ) ) REPRESENTATION_CONTEXT ( 'NONE', 'WORKASPACE' ) );
#91 = ADVANCED_FACE ( 'NONE', ( #93 ), #52, .F. ) ;
#92 = CARTESIAN_POINT ( 'NONE',  ( -50.00000000000071054, -7.806255641895631925E-15, -1.387778780781445676E-14 ) ) ;
#93 = FACE_OUTER_BOUND ( 'NONE', #146, .T. ) ;
#94 = PRODUCT_RELATED_PRODUCT_CATEGORY ( 'part', '', ( #40 ) ) ;
#95 = UNCERTAINTY_MEASURE_WITH_UNIT (LENGTH_MEASURE( 1.000000000000000082E-05 ), #205, 'distance_accuracy_value', 'NONE');
#96 = DIRECTION ( 'NONE',  ( -1.000000000000000000, -0.000000000000000000, -0.000000000000000000 ) ) ;
#97 = DIRECTION ( 'NONE',  ( 0.000000000000000000, 0.000000000000000000, 1.000000000000000000 ) ) ;
#98 = AXIS2_PLACEMENT_3D ( 'NONE', #60, #161, #253 ) ;
#99 = VERTEX_POINT ( 'NONE', #229 ) ;
#100 = DIRECTION ( 'NONE',  ( -5.074904731856113905E-17, -4.440892098500626162E-16, 1.000000000000000000 ) ) ;
#101 = VECTOR ( 'NONE', #211, 1000.000000000000114 ) ;
#102 = VERTEX_POINT ( 'NONE', #247 ) ;
#103 = CARTESIAN_POINT ( 'NONE',  ( -25.00000000000000000, 0.000000000000000000, 0.000000000000000000 ) ) ;
#104 = FACE_OUTER_BOUND ( 'NONE', #85, .T. ) ;
#105 = ORIENTED_EDGE ( 'NONE', *, *, #178, .F. ) ;
#106 =( LENGTH_UNIT ( ) NAMED_UNIT ( * ) SI_UNIT ( .MILLI., .METRE. ) );
#107 = DIRECTION ( 'NONE',  ( 0.000000000000000000, 0.000000000000000000, 1.000000000000000000 ) ) ;
#108 = SURFACE_SIDE_STYLE ('',( #84 ) ) ;
#109 = COLOUR_RGB ( '',0.7529411764705882248, 0.7529411764705882248, 0.7529411764705882248 ) ;
#110 = VECTOR ( 'NONE', #70, 1000.000000000000000 ) ;
#111 = ITEM_DEFINED_TRANSFORMATION ( 'NONE', 'NONE', #179,  #181 ) ;
#112 = CARTESIAN_POINT ( 'NONE',  ( 25.00000000000000000, -35.35533905932769017, -35.35533905932705778 ) ) ;
#113 = PRODUCT_CONTEXT ( 'NONE', #153, 'mechanical' ) ;
#114 = CONTEXT_DEPENDENT_SHAPE_REPRESENTATION ( #230, #145 ) ;
#115 = ADVANCED_FACE ( 'NONE', ( #154 ), #227, .F. ) ;
#116 = PRESENTATION_LAYER_ASSIGNMENT (  '', '', ( #4 ) ) ;
#117 = CARTESIAN_POINT ( 'NONE',  ( -25.00000000000000000, -35.35533905932769017, -35.35533905932705778 ) ) ;
#118 = CARTESIAN_POINT ( 'NONE',  ( 25.00000000000000000, -35.35533905932769727, 35.35533905932805254 ) ) ;
#119 = APPLICATION_PROTOCOL_DEFINITION ( 'draft international standard', 'automotive_design', 1998, #67 ) ;
#120 = PRODUCT_DEFINITION ( 'UNKNOWN', '', #76, #232 ) ;
#121 = FACE_OUTER_BOUND ( 'NONE', #157, .T. ) ;
#122 = PLANE ( 'NONE',  #242 ) ;
#123 = EDGE_CURVE ( 'NONE', #155, #173, #244, .T. ) ;
#124 = PRODUCT_DEFINITION_CONTEXT ( 'detailed design', #241, 'design' ) ;
#125 = EDGE_CURVE ( 'NONE', #99, #155, #193, .T. ) ;
#126 = ORIENTED_EDGE ( 'NONE', *, *, #64, .T. ) ;
#127 =( GEOMETRIC_REPRESENTATION_CONTEXT ( 3 ) GLOBAL_UNCERTAINTY_ASSIGNED_CONTEXT ( ( #152 ) ) GLOBAL_UNIT_ASSIGNED_CONTEXT ( ( #240, #194, #69 ) ) REPRESENTATION_CONTEXT ( 'NONE', 'WORKASPACE' ) );
#128 = LINE ( 'NONE', #117, #101 ) ;
#129 = PRODUCT_DEFINITION ( 'UNKNOWN', '', #9, #75 ) ;
#130 = PRESENTATION_LAYER_ASSIGNMENT (  '', '', ( #35 ) ) ;
#131 = ORIENTED_EDGE ( 'NONE', *, *, #187, .F. ) ;
#132 = PRODUCT_DEFINITION ( 'UNKNOWN', '', #33, #124 ) ;
#133 =( LENGTH_UNIT ( ) NAMED_UNIT ( * ) SI_UNIT ( .MILLI., .METRE. ) );
#134 = PRODUCT_DEFINITION ( 'UNKNOWN', '', #162, #226 ) ;
#135 = AXIS2_PLACEMENT_3D ( 'NONE', #19, #97, #42 ) ;
#136 = DIRECTION ( 'NONE',  ( 1.000000000000000000, 5.113016221749026796E-16, -5.752864575547301321E-17 ) ) ;
#137 = PLANE ( 'NONE',  #78 ) ;
#138 = CARTESIAN_POINT ( 'NONE',  ( -25.00000000000000000, -35.35533905932769727, 35.35533905932805254 ) ) ;
#139 = LINE ( 'NONE', #176, #6 ) ;
#140 = PRODUCT ( '49007', '49007', '', ( #239 ) ) ;
#141 = ADVANCED_BREP_SHAPE_REPRESENTATION ( '', ( #22, #181 ), #254 ) ;
#142 = SHAPE_REPRESENTATION ( '49007', ( #181 ), #254 ) ;
#143 = EDGE_CURVE ( 'NONE', #99, #102, #16, .T. ) ;
#144 = APPLICATION_PROTOCOL_DEFINITION ( 'draft international standard', 'automotive_design', 1998, #201 ) ;
#145 = PRODUCT_DEFINITION_SHAPE ( 'NONE', 'NONE',  #255 ) ;
#146 = EDGE_LOOP ( 'NONE', ( #82, #13, #59, #234 ) ) ;
#147 = APPLICATION_CONTEXT ( 'automotive_design' ) ;
#148 = VECTOR ( 'NONE', #168, 999.9999999999998863 ) ;
#149 = APPLICATION_PROTOCOL_DEFINITION ( 'draft international standard', 'automotive_design', 1998, #153 ) ;
#150 = ORIENTED_EDGE ( 'NONE', *, *, #65, .F. ) ;
#151 = AXIS2_PLACEMENT_3D ( 'NONE', #92, #221, #100 ) ;
#152 = UNCERTAINTY_MEASURE_WITH_UNIT (LENGTH_MEASURE( 1.000000000000000082E-05 ), #240, 'distance_accuracy_value', 'NONE');
#153 = APPLICATION_CONTEXT ( 'automotive_design' ) ;
#154 = FACE_OUTER_BOUND ( 'NONE', #213, .T. ) ;
#155 = VERTEX_POINT ( 'NONE', #80 ) ;
#156 =( NAMED_UNIT ( * ) PLANE_ANGLE_UNIT ( ) SI_UNIT ( $, .RADIAN. ) );
#157 = EDGE_LOOP ( 'NONE', ( #199, #131, #150 ) ) ;
#158 = ADVANCED_FACE ( 'NONE', ( #121 ), #122, .F. ) ;
#159 =( NAMED_UNIT ( * ) SI_UNIT ( $, .STERADIAN. ) SOLID_ANGLE_UNIT ( ) );
#160 = PRODUCT_RELATED_PRODUCT_CATEGORY ( 'part', '', ( #5 ) ) ;
#161 = DIRECTION ( 'NONE',  ( 0.000000000000000000, 0.000000000000000000, 1.000000000000000000 ) ) ;
#162 = PRODUCT_DEFINITION_FORMATION_WITH_SPECIFIED_SOURCE ( 'ANY', '', #140, .NOT_KNOWN. ) ;
#163 = DIRECTION ( 'NONE',  ( 0.000000000000000000, 0.7071067811865440200, -0.7071067811865511255 ) ) ;
#164 = MECHANICAL_DESIGN_GEOMETRIC_PRESENTATION_REPRESENTATION (  '', ( #35 ), #184 ) ;
#165 = APPLICATION_CONTEXT ( 'automotive_design' ) ;
#166 = PRODUCT ( 'NOA61_NOA61orEquiv', 'NOA61_NOA61orEquiv', '', ( #113 ) ) ;
#167 = DIRECTION ( 'NONE',  ( 1.000000000000000000, 0.000000000000000000, 0.000000000000000000 ) ) ;
#168 = DIRECTION ( 'NONE',  ( 0.000000000000000000, -0.7071067811865440200, 0.7071067811865511255 ) ) ;
#169 = SHAPE_DEFINITION_REPRESENTATION ( #190, #206 ) ;
#170 = LINE ( 'NONE', #18, #148 ) ;
#171 = VECTOR ( 'NONE', #96, 1000.000000000000000 ) ;
#172 = DIRECTION ( 'NONE',  ( 0.000000000000000000, -9.813077866773543947E-17, 1.000000000000000000 ) ) ;
#173 = VERTEX_POINT ( 'NONE', #103 ) ;
#174 = EDGE_CURVE ( 'NONE', #28, #203, #12, .T. ) ;
#175 = APPLICATION_CONTEXT ( 'automotive_design' ) ;
#176 = CARTESIAN_POINT ( 'NONE',  ( -25.00000000000000000, -35.35533905932769727, 35.35533905932805254 ) ) ;
#177 = SURFACE_STYLE_FILL_AREA ( #231 ) ;
#178 = EDGE_CURVE ( 'NONE', #155, #28, #189, .T. ) ;
#179 = AXIS2_PLACEMENT_3D ( 'NONE', #48, #180, #217 ) ;
#180 = DIRECTION ( 'NONE',  ( -2.423613258590415369E-16, 0.7071067811865413555, 0.7071067811865536790 ) ) ;
#181 = AXIS2_PLACEMENT_3D ( 'NONE', #49, #107, #235 ) ;
#182 =( NAMED_UNIT ( * ) PLANE_ANGLE_UNIT ( ) SI_UNIT ( $, .RADIAN. ) );
#183 = CARTESIAN_POINT ( 'NONE',  ( 25.00000000000000000, 0.000000000000000000, 0.000000000000000000 ) ) ;
#184 =( GEOMETRIC_REPRESENTATION_CONTEXT ( 3 ) GLOBAL_UNCERTAINTY_ASSIGNED_CONTEXT ( ( #200 ) ) GLOBAL_UNIT_ASSIGNED_CONTEXT ( ( #133, #156, #159 ) ) REPRESENTATION_CONTEXT ( 'NONE', 'WORKASPACE' ) );
#185 = SHAPE_REPRESENTATION_RELATIONSHIP ( 'NONE' , 'NONE' ,  #142, #141 ) ;
#186 = CONTEXT_DEPENDENT_SHAPE_REPRESENTATION ( #214, #245 ) ;
#187 = EDGE_CURVE ( 'NONE', #203, #102, #139, .T. ) ;
#188 = CARTESIAN_POINT ( 'NONE',  ( 25.00000000000000000, -35.35533905932769017, -35.35533905932705778 ) ) ;
#189 = LINE ( 'NONE', #183, #208 ) ;
#190 = PRODUCT_DEFINITION_SHAPE ( 'NONE', 'NONE',  #132 ) ;
#191 = DIRECTION ( 'NONE',  ( 0.000000000000000000, 0.000000000000000000, 1.000000000000000000 ) ) ;
#192 = APPLICATION_CONTEXT ( 'automotive_design' ) ;
#193 = LINE ( 'NONE', #112, #55 ) ;
#194 =( NAMED_UNIT ( * ) PLANE_ANGLE_UNIT ( ) SI_UNIT ( $, .RADIAN. ) );
#195 = FILL_AREA_STYLE ('',( #46 ) ) ;
#196 = DIRECTION ( 'NONE',  ( -1.000000000000000000, -0.000000000000000000, -0.000000000000000000 ) ) ;
#197 = PRODUCT_DEFINITION_SHAPE ( 'NONE', 'NONE',  #134 ) ;
#198 = COLOUR_RGB ( '',0.7529411764705882248, 0.7529411764705882248, 0.7529411764705882248 ) ;
#199 = ORIENTED_EDGE ( 'NONE', *, *, #27, .F. ) ;
#200 = UNCERTAINTY_MEASURE_WITH_UNIT (LENGTH_MEASURE( 1.000000000000000082E-05 ), #133, 'distance_accuracy_value', 'NONE');
#201 = APPLICATION_CONTEXT ( 'automotive_design' ) ;
#202 = PRESENTATION_STYLE_ASSIGNMENT (( #237 ) ) ;
#203 = VERTEX_POINT ( 'NONE', #138 ) ;
#204 = ORIENTED_EDGE ( 'NONE', *, *, #187, .T. ) ;
#205 =( LENGTH_UNIT ( ) NAMED_UNIT ( * ) SI_UNIT ( .MILLI., .METRE. ) );
#206 = SHAPE_REPRESENTATION ( '20098', ( #14, #151 ), #127 ) ;
#207 = DIRECTION ( 'NONE',  ( 0.000000000000000000, 9.813077866773543947E-17, -1.000000000000000000 ) ) ;
#208 = VECTOR ( 'NONE', #50, 999.9999999999998863 ) ;
#209 = DIRECTION ( 'NONE',  ( 0.000000000000000000, 0.7071067811865537900, 0.7071067811865412445 ) ) ;
#210 = ITEM_DEFINED_TRANSFORMATION ( 'NONE', 'NONE', #53,  #181 ) ;
#211 = DIRECTION ( 'NONE',  ( 0.000000000000000000, 0.7071067811865537900, 0.7071067811865412445 ) ) ;
#212 = SHAPE_DEFINITION_REPRESENTATION ( #57, #86 ) ;
#213 = EDGE_LOOP ( 'NONE', ( #204, #11, #236, #83 ) ) ;
#214 =( REPRESENTATION_RELATIONSHIP ('NONE','NONE', #86, #142 ) REPRESENTATION_RELATIONSHIP_WITH_TRANSFORMATION ( #210 )SHAPE_REPRESENTATION_RELATIONSHIP( ) );
#215 = VECTOR ( 'NONE', #196, 1000.000000000000000 ) ;
#216 =( GEOMETRIC_REPRESENTATION_CONTEXT ( 3 ) GLOBAL_UNCERTAINTY_ASSIGNED_CONTEXT ( ( #8 ) ) GLOBAL_UNIT_ASSIGNED_CONTEXT ( ( #106, #182, #238 ) ) REPRESENTATION_CONTEXT ( 'NONE', 'WORKASPACE' ) );
#217 = DIRECTION ( 'NONE',  ( 1.000000000000000000, 5.113016222477827777E-16, -5.752864576068146734E-17 ) ) ;
#218 = DIRECTION ( 'NONE',  ( 1.000000000000000000, 0.000000000000000000, -0.000000000000000000 ) ) ;
#219 = CARTESIAN_POINT ( 'NONE',  ( 25.00000000000000000, 0.000000000000000000, 0.000000000000000000 ) ) ;
#220 = MECHANICAL_DESIGN_GEOMETRIC_PRESENTATION_REPRESENTATION (  '', ( #4 ), #216 ) ;
#221 = DIRECTION ( 'NONE',  ( -1.000000000000000000, -2.910250200338236213E-16, -5.074904731856126231E-17 ) ) ;
#222 = APPLICATION_PROTOCOL_DEFINITION ( 'draft international standard', 'automotive_design', 1998, #165 ) ;
#223 = ADVANCED_FACE ( 'NONE', ( #104 ), #137, .T. ) ;
#224 = AXIS2_PLACEMENT_3D ( 'NONE', #3, #225, #41 ) ;
#225 = DIRECTION ( 'NONE',  ( 0.000000000000000000, -0.7071067811865412445, 0.7071067811865537900 ) ) ;
#226 = PRODUCT_DEFINITION_CONTEXT ( 'detailed design', #201, 'design' ) ;
#227 = PLANE ( 'NONE',  #24 ) ;
#228 = ADVANCED_FACE ( 'NONE', ( #29 ), #62, .F. ) ;
#229 = CARTESIAN_POINT ( 'NONE',  ( 25.00000000000000000, -35.35533905932769017, -35.35533905932705778 ) ) ;
#230 =( REPRESENTATION_RELATIONSHIP ('NONE','NONE', #206, #86 ) REPRESENTATION_RELATIONSHIP_WITH_TRANSFORMATION ( #34 )SHAPE_REPRESENTATION_RELATIONSHIP( ) );
#231 = FILL_AREA_STYLE ('',( #250 ) ) ;
#232 = PRODUCT_DEFINITION_CONTEXT ( 'detailed design', #147, 'design' ) ;
#233 = AXIS2_PLACEMENT_3D ( 'NONE', #252, #44, #163 ) ;
#234 = ORIENTED_EDGE ( 'NONE', *, *, #143, .T. ) ;
#235 = DIRECTION ( 'NONE',  ( 1.000000000000000000, 0.000000000000000000, 0.000000000000000000 ) ) ;
#236 = ORIENTED_EDGE ( 'NONE', *, *, #64, .F. ) ;
#237 = SURFACE_STYLE_USAGE ( .BOTH. , #108 ) ;
#238 =( NAMED_UNIT ( * ) SI_UNIT ( $, .STERADIAN. ) SOLID_ANGLE_UNIT ( ) );
#239 = PRODUCT_CONTEXT ( 'NONE', #192, 'mechanical' ) ;
#240 =( LENGTH_UNIT ( ) NAMED_UNIT ( * ) SI_UNIT ( .MILLI., .METRE. ) );
#241 = APPLICATION_CONTEXT ( 'automotive_design' ) ;
#242 = AXIS2_PLACEMENT_3D ( 'NONE', #30, #10, #25 ) ;
#243 = ORIENTED_EDGE ( 'NONE', *, *, #65, .T. ) ;
#244 = LINE ( 'NONE', #38, #171 ) ;
#245 = PRODUCT_DEFINITION_SHAPE ( 'NONE', 'NONE',  #256 ) ;
#246 = PRODUCT_RELATED_PRODUCT_CATEGORY ( 'part', '', ( #166 ) ) ;
#247 = CARTESIAN_POINT ( 'NONE',  ( -25.00000000000000000, -35.35533905932769017, -35.35533905932705778 ) ) ;
#248 = EDGE_LOOP ( 'NONE', ( #243, #23, #105, #58 ) ) ;
#249 =( REPRESENTATION_RELATIONSHIP ('NONE','NONE', #86, #142 ) REPRESENTATION_RELATIONSHIP_WITH_TRANSFORMATION ( #111 )SHAPE_REPRESENTATION_RELATIONSHIP( ) );
#250 = FILL_AREA_STYLE_COLOUR ( '', #198 ) ;
#251 = SURFACE_SIDE_STYLE ('',( #177 ) ) ;
#252 = CARTESIAN_POINT ( 'NONE',  ( 25.00000000000000000, 0.000000000000000000, 0.000000000000000000 ) ) ;
#253 = DIRECTION ( 'NONE',  ( 1.000000000000000000, 0.000000000000000000, 0.000000000000000000 ) ) ;
#254 =( GEOMETRIC_REPRESENTATION_CONTEXT ( 3 ) GLOBAL_UNCERTAINTY_ASSIGNED_CONTEXT ( ( #37 ) ) GLOBAL_UNIT_ASSIGNED_CONTEXT ( ( #63, #15, #31 ) ) REPRESENTATION_CONTEXT ( 'NONE', 'WORKASPACE' ) );
#255 = NEXT_ASSEMBLY_USAGE_OCCURRENCE ( 'NAUO1', ' ', ' ', #132, #129, $ ) ;
#256 = NEXT_ASSEMBLY_USAGE_OCCURRENCE ( 'NAUO2', ' ', ' ', #129, #134, $ ) ;
#257 = NEXT_ASSEMBLY_USAGE_OCCURRENCE ( 'NAUO3', ' ', ' ', #129, #134, $ ) ;
ENDSEC;
END-ISO-10303-21;
