ISO-10303-21;
HEADER;
FILE_DESCRIPTION (( 'STEP AP203' ),
    '1' );
FILE_NAME ('Web Model 39245_39245.step',
    '2018-07-25T17:16:30',
    ( '' ),
    ( '' ),
    'SwSTEP 2.0',
    'SolidWorks 2016',
    '' );
FILE_SCHEMA (( 'CONFIG_CONTROL_DESIGN' ));
ENDSEC;

DATA;
#1 = LINE ( 'NONE', #75, #126 ) ;
#2 = LOCAL_TIME ( 13, 16, 30.00000000000000000, #37 ) ;
#3 = EDGE_CURVE ( 'NONE', #165, #25, #36, .T. ) ;
#4 = LINE ( 'NONE', #32, #133 ) ;
#5 = CARTESIAN_POINT ( 'NONE',  ( 0.0000000000000000000, 0.0000000000000000000, 0.0000000000000000000 ) ) ;
#6 = LOCAL_TIME ( 13, 16, 30.00000000000000000, #33 ) ;
#7 = FACE_OUTER_BOUND ( 'NONE', #54, .T. ) ;
#8 = ORIENTED_EDGE ( 'NONE', *, *, #3, .T. ) ;
#9 = APPLICATION_CONTEXT ( 'configuration controlled 3d designs of mechanical parts and assemblies' ) ;
#10 = EDGE_CURVE ( 'NONE', #25, #165, #73, .T. ) ;
#11 =( NAMED_UNIT ( * ) SI_UNIT ( $, .STERADIAN. ) SOLID_ANGLE_UNIT ( ) );
#12 = LOCAL_TIME ( 13, 16, 30.00000000000000000, #22 ) ;
#13 = AXIS2_PLACEMENT_3D ( 'NONE', #87, #28, #159 ) ;
#14 = DIRECTION ( 'NONE',  ( 0.0000000000000000000, 0.0000000000000000000, 1.000000000000000000 ) ) ;
#15 = CARTESIAN_POINT ( 'NONE',  ( -25.39999999999999900, 0.0000000000000000000, -1.575000000000000000 ) ) ;
#16 = APPROVAL_DATE_TIME ( #158, #101 ) ;
#17 = PRODUCT_RELATED_PRODUCT_CATEGORY ( 'detail', '', ( #142 ) ) ;
#18 = ADVANCED_FACE ( 'NONE', ( #7 ), #169, .F. ) ;
#19 = PERSON_AND_ORGANIZATION ( #70, #175 ) ;
#20 = CC_DESIGN_DATE_AND_TIME_ASSIGNMENT ( #123, #72, ( #132 ) ) ;
#21 = APPLICATION_CONTEXT ( 'configuration controlled 3d designs of mechanical parts and assemblies' ) ;
#22 = COORDINATED_UNIVERSAL_TIME_OFFSET ( 5, 0, .BEHIND. ) ;
#23 = APPLICATION_PROTOCOL_DEFINITION ( 'international standard', 'config_control_design', 1994, #9 ) ;
#24 = PERSON_AND_ORGANIZATION_ROLE ( 'creator' ) ;
#25 = VERTEX_POINT ( 'NONE', #44 ) ;
#26 = UNCERTAINTY_MEASURE_WITH_UNIT (LENGTH_MEASURE( 1.000000000000000100E-005 ), #96, 'distance_accuracy_value', 'NONE');
#27 = PERSON_AND_ORGANIZATION_ROLE ( 'design_supplier' ) ;
#28 = DIRECTION ( 'NONE',  ( -0.0000000000000000000, -0.0000000000000000000, -1.000000000000000000 ) ) ;
#29 = EDGE_CURVE ( 'NONE', #25, #135, #4, .T. ) ;
#30 = FACE_OUTER_BOUND ( 'NONE', #100, .T. ) ;
#31 = CARTESIAN_POINT ( 'NONE',  ( 0.0000000000000000000, 0.0000000000000000000, -1.575000000000000000 ) ) ;
#32 = CARTESIAN_POINT ( 'NONE',  ( -25.39999999999999900, 0.0000000000000000000, 1.575000000000000000 ) ) ;
#33 = COORDINATED_UNIVERSAL_TIME_OFFSET ( 5, 0, .BEHIND. ) ;
#34 = APPROVAL ( #149, 'UNSPECIFIED' ) ;
#35 = DIRECTION ( 'NONE',  ( -1.000000000000000000, 0.0000000000000000000, 0.0000000000000000000 ) ) ;
#36 = CIRCLE ( 'NONE', #92, 25.39999999999999900 ) ;
#37 = COORDINATED_UNIVERSAL_TIME_OFFSET ( 5, 0, .BEHIND. ) ;
#38 = CYLINDRICAL_SURFACE ( 'NONE', #111, 25.39999999999999900 ) ;
#39 = DIRECTION ( 'NONE',  ( 1.000000000000000000, 0.0000000000000000000, 0.0000000000000000000 ) ) ;
#40 = CALENDAR_DATE ( 2018, 25, 7 ) ;
#41 = ORIENTED_EDGE ( 'NONE', *, *, #117, .F. ) ;
#42 = PERSON_AND_ORGANIZATION ( #70, #175 ) ;
#43 = CARTESIAN_POINT ( 'NONE',  ( 25.39999999999999900, 3.110602869834276900E-015, 1.575000000000000000 ) ) ;
#44 = CARTESIAN_POINT ( 'NONE',  ( -25.39999999999999900, 0.0000000000000000000, 1.575000000000000000 ) ) ;
#45 = SHAPE_DEFINITION_REPRESENTATION ( #114, #66 ) ;
#46 = DATE_AND_TIME ( #153, #6 ) ;
#47 = APPROVAL_DATE_TIME ( #118, #34 ) ;
#48 = PLANE ( 'NONE',  #162 ) ;
#49 = APPROVAL ( #74, 'UNSPECIFIED' ) ;
#50 = DIRECTION ( 'NONE',  ( 0.0000000000000000000, 0.0000000000000000000, 1.000000000000000000 ) ) ;
#51 = DIRECTION ( 'NONE',  ( 0.0000000000000000000, 0.0000000000000000000, 1.000000000000000000 ) ) ;
#52 = ADVANCED_FACE ( 'NONE', ( #94 ), #38, .T. ) ;
#53 = SECURITY_CLASSIFICATION ( '', '', #150 ) ;
#54 = EDGE_LOOP ( 'NONE', ( #115, #69 ) ) ;
#55 = CALENDAR_DATE ( 2018, 25, 7 ) ;
#56 = DIRECTION ( 'NONE',  ( 1.000000000000000000, 0.0000000000000000000, 0.0000000000000000000 ) ) ;
#57 = AXIS2_PLACEMENT_3D ( 'NONE', #5, #93, #95 ) ;
#58 = DIRECTION ( 'NONE',  ( -0.0000000000000000000, -0.0000000000000000000, -1.000000000000000000 ) ) ;
#59 = DESIGN_CONTEXT ( 'detailed design', #9, 'design' ) ;
#60 = PERSON_AND_ORGANIZATION_ROLE ( 'creator' ) ;
#61 = CIRCLE ( 'NONE', #151, 25.39999999999999900 ) ;
#62 = APPROVAL_PERSON_ORGANIZATION ( #116, #101, #148 ) ;
#63 = PERSON_AND_ORGANIZATION_ROLE ( 'classification_officer' ) ;
#64 = CC_DESIGN_PERSON_AND_ORGANIZATION_ASSIGNMENT ( #19, #27, ( #147 ) ) ;
#65 = CARTESIAN_POINT ( 'NONE',  ( 25.39999999999999900, 3.110602869834276900E-015, -1.575000000000000000 ) ) ;
#66 = ADVANCED_BREP_SHAPE_REPRESENTATION ( 'Web Model 39245_39245', ( #120, #57 ), #78 ) ;
#67 = ADVANCED_FACE ( 'NONE', ( #30 ), #83, .T. ) ;
#68 = LOCAL_TIME ( 13, 16, 30.00000000000000000, #143 ) ;
#69 = ORIENTED_EDGE ( 'NONE', *, *, #129, .F. ) ;
#70 = PERSON ( 'UNSPECIFIED', 'UNSPECIFIED', 'UNSPECIFIED', ('UNSPECIFIED'), ('UNSPECIFIED'), ('UNSPECIFIED') ) ;
#71 = DIRECTION ( 'NONE',  ( 1.000000000000000000, 0.0000000000000000000, -0.0000000000000000000 ) ) ;
#72 = DATE_TIME_ROLE ( 'creation_date' ) ;
#73 = CIRCLE ( 'NONE', #167, 25.39999999999999900 ) ;
#74 = APPROVAL_STATUS ( 'not_yet_approved' ) ;
#75 = CARTESIAN_POINT ( 'NONE',  ( 25.39999999999999900, 3.110602869834276900E-015, 1.575000000000000000 ) ) ;
#76 = CC_DESIGN_PERSON_AND_ORGANIZATION_ASSIGNMENT ( #88, #63, ( #53 ) ) ;
#77 = VERTEX_POINT ( 'NONE', #65 ) ;
#78 =( GEOMETRIC_REPRESENTATION_CONTEXT ( 3 ) GLOBAL_UNCERTAINTY_ASSIGNED_CONTEXT ( ( #26 ) ) GLOBAL_UNIT_ASSIGNED_CONTEXT ( ( #96, #140, #11 ) ) REPRESENTATION_CONTEXT ( 'NONE', 'WORKASPACE' ) );
#79 = PERSON_AND_ORGANIZATION ( #70, #175 ) ;
#80 = DIRECTION ( 'NONE',  ( 0.0000000000000000000, 0.0000000000000000000, 1.000000000000000000 ) ) ;
#81 = APPROVAL_ROLE ( '' ) ;
#82 = DIRECTION ( 'NONE',  ( -0.0000000000000000000, -0.0000000000000000000, -1.000000000000000000 ) ) ;
#83 = CYLINDRICAL_SURFACE ( 'NONE', #13, 25.39999999999999900 ) ;
#84 = APPROVAL_PERSON_ORGANIZATION ( #131, #49, #81 ) ;
#85 = DATE_TIME_ROLE ( 'classification_date' ) ;
#86 = DIRECTION ( 'NONE',  ( -0.0000000000000000000, -0.0000000000000000000, -1.000000000000000000 ) ) ;
#87 = CARTESIAN_POINT ( 'NONE',  ( 0.0000000000000000000, 0.0000000000000000000, 1.575000000000000000 ) ) ;
#88 = PERSON_AND_ORGANIZATION ( #70, #175 ) ;
#89 = ORIENTED_EDGE ( 'NONE', *, *, #10, .T. ) ;
#90 = CC_DESIGN_PERSON_AND_ORGANIZATION_ASSIGNMENT ( #79, #139, ( #142 ) ) ;
#91 = CC_DESIGN_APPROVAL ( #49, ( #147 ) ) ;
#92 = AXIS2_PLACEMENT_3D ( 'NONE', #172, #51, #108 ) ;
#93 = DIRECTION ( 'NONE',  ( 0.0000000000000000000, 0.0000000000000000000, 1.000000000000000000 ) ) ;
#94 = FACE_OUTER_BOUND ( 'NONE', #130, .T. ) ;
#95 = DIRECTION ( 'NONE',  ( 1.000000000000000000, 0.0000000000000000000, 0.0000000000000000000 ) ) ;
#96 =( LENGTH_UNIT ( ) NAMED_UNIT ( * ) SI_UNIT ( .MILLI., .METRE. ) );
#97 = CLOSED_SHELL ( 'NONE', ( #67, #52, #156, #18 ) ) ;
#98 = CC_DESIGN_APPROVAL ( #101, ( #132 ) ) ;
#99 = CARTESIAN_POINT ( 'NONE',  ( 0.0000000000000000000, 0.0000000000000000000, 1.575000000000000000 ) ) ;
#100 = EDGE_LOOP ( 'NONE', ( #163, #152, #119, #122 ) ) ;
#101 = APPROVAL ( #112, 'UNSPECIFIED' ) ;
#102 = APPROVAL_DATE_TIME ( #110, #49 ) ;
#103 = DIRECTION ( 'NONE',  ( 0.0000000000000000000, 0.0000000000000000000, 1.000000000000000000 ) ) ;
#104 = AXIS2_PLACEMENT_3D ( 'NONE', #31, #50, #106 ) ;
#105 = CARTESIAN_POINT ( 'NONE',  ( 0.0000000000000000000, 0.0000000000000000000, -1.575000000000000000 ) ) ;
#106 = DIRECTION ( 'NONE',  ( 1.000000000000000000, 0.0000000000000000000, 0.0000000000000000000 ) ) ;
#107 = ORIENTED_EDGE ( 'NONE', *, *, #141, .T. ) ;
#108 = DIRECTION ( 'NONE',  ( 1.000000000000000000, 0.0000000000000000000, 0.0000000000000000000 ) ) ;
#109 = PERSON_AND_ORGANIZATION ( #70, #175 ) ;
#110 = DATE_AND_TIME ( #136, #68 ) ;
#111 = AXIS2_PLACEMENT_3D ( 'NONE', #99, #86, #35 ) ;
#112 = APPROVAL_STATUS ( 'not_yet_approved' ) ;
#113 = APPROVAL_ROLE ( '' ) ;
#114 = PRODUCT_DEFINITION_SHAPE ( 'NONE', 'NONE',  #132 ) ;
#115 = ORIENTED_EDGE ( 'NONE', *, *, #141, .F. ) ;
#116 = PERSON_AND_ORGANIZATION ( #70, #175 ) ;
#117 = EDGE_CURVE ( 'NONE', #165, #77, #1, .T. ) ;
#118 = DATE_AND_TIME ( #40, #12 ) ;
#119 = ORIENTED_EDGE ( 'NONE', *, *, #129, .T. ) ;
#120 = MANIFOLD_SOLID_BREP ( 'Boss-Extrude1', #97 ) ;
#121 = APPLICATION_PROTOCOL_DEFINITION ( 'international standard', 'config_control_design', 1994, #21 ) ;
#122 = ORIENTED_EDGE ( 'NONE', *, *, #29, .F. ) ;
#123 = DATE_AND_TIME ( #55, #128 ) ;
#124 = CARTESIAN_POINT ( 'NONE',  ( 0.0000000000000000000, 0.0000000000000000000, -1.575000000000000000 ) ) ;
#125 = APPROVAL_PERSON_ORGANIZATION ( #109, #34, #113 ) ;
#126 = VECTOR ( 'NONE', #82, 1000.000000000000000 ) ;
#127 = FACE_OUTER_BOUND ( 'NONE', #146, .T. ) ;
#128 = LOCAL_TIME ( 13, 16, 30.00000000000000000, #171 ) ;
#129 = EDGE_CURVE ( 'NONE', #77, #135, #61, .T. ) ;
#130 = EDGE_LOOP ( 'NONE', ( #41, #174, #161, #107 ) ) ;
#131 = PERSON_AND_ORGANIZATION ( #70, #175 ) ;
#132 = PRODUCT_DEFINITION ( 'UNKNOWN', '', #147, #59 ) ;
#133 = VECTOR ( 'NONE', #58, 1000.000000000000000 ) ;
#134 = CARTESIAN_POINT ( 'NONE',  ( 0.0000000000000000000, 0.0000000000000000000, 1.575000000000000000 ) ) ;
#135 = VERTEX_POINT ( 'NONE', #15 ) ;
#136 = CALENDAR_DATE ( 2018, 25, 7 ) ;
#137 = AXIS2_PLACEMENT_3D ( 'NONE', #124, #80, #144 ) ;
#138 = CARTESIAN_POINT ( 'NONE',  ( 0.0000000000000000000, 0.0000000000000000000, 1.575000000000000000 ) ) ;
#139 = PERSON_AND_ORGANIZATION_ROLE ( 'design_owner' ) ;
#140 =( NAMED_UNIT ( * ) PLANE_ANGLE_UNIT ( ) SI_UNIT ( $, .RADIAN. ) );
#141 = EDGE_CURVE ( 'NONE', #135, #77, #170, .T. ) ;
#142 = PRODUCT ( 'Web Model 39245_39245', 'Web Model 39245_39245', '', ( #168 ) ) ;
#143 = COORDINATED_UNIVERSAL_TIME_OFFSET ( 5, 0, .BEHIND. ) ;
#144 = DIRECTION ( 'NONE',  ( 1.000000000000000000, 0.0000000000000000000, -0.0000000000000000000 ) ) ;
#145 = PERSON_AND_ORGANIZATION ( #70, #175 ) ;
#146 = EDGE_LOOP ( 'NONE', ( #89, #8 ) ) ;
#147 = PRODUCT_DEFINITION_FORMATION_WITH_SPECIFIED_SOURCE ( 'ANY', '', #142, .NOT_KNOWN. ) ;
#148 = APPROVAL_ROLE ( '' ) ;
#149 = APPROVAL_STATUS ( 'not_yet_approved' ) ;
#150 = SECURITY_CLASSIFICATION_LEVEL ( 'unclassified' ) ;
#151 = AXIS2_PLACEMENT_3D ( 'NONE', #105, #103, #39 ) ;
#152 = ORIENTED_EDGE ( 'NONE', *, *, #117, .T. ) ;
#153 = CALENDAR_DATE ( 2018, 25, 7 ) ;
#154 = CC_DESIGN_PERSON_AND_ORGANIZATION_ASSIGNMENT ( #145, #24, ( #147 ) ) ;
#155 = CC_DESIGN_SECURITY_CLASSIFICATION ( #53, ( #147 ) ) ;
#156 = ADVANCED_FACE ( 'NONE', ( #127 ), #48, .T. ) ;
#157 = CC_DESIGN_PERSON_AND_ORGANIZATION_ASSIGNMENT ( #42, #60, ( #132 ) ) ;
#158 = DATE_AND_TIME ( #164, #2 ) ;
#159 = DIRECTION ( 'NONE',  ( -1.000000000000000000, 0.0000000000000000000, 0.0000000000000000000 ) ) ;
#160 = CC_DESIGN_APPROVAL ( #34, ( #53 ) ) ;
#161 = ORIENTED_EDGE ( 'NONE', *, *, #29, .T. ) ;
#162 = AXIS2_PLACEMENT_3D ( 'NONE', #134, #166, #71 ) ;
#163 = ORIENTED_EDGE ( 'NONE', *, *, #3, .F. ) ;
#164 = CALENDAR_DATE ( 2018, 25, 7 ) ;
#165 = VERTEX_POINT ( 'NONE', #43 ) ;
#166 = DIRECTION ( 'NONE',  ( 0.0000000000000000000, 0.0000000000000000000, 1.000000000000000000 ) ) ;
#167 = AXIS2_PLACEMENT_3D ( 'NONE', #138, #14, #56 ) ;
#168 = MECHANICAL_CONTEXT ( 'NONE', #21, 'mechanical' ) ;
#169 = PLANE ( 'NONE',  #137 ) ;
#170 = CIRCLE ( 'NONE', #104, 25.39999999999999900 ) ;
#171 = COORDINATED_UNIVERSAL_TIME_OFFSET ( 5, 0, .BEHIND. ) ;
#172 = CARTESIAN_POINT ( 'NONE',  ( 0.0000000000000000000, 0.0000000000000000000, 1.575000000000000000 ) ) ;
#173 = CC_DESIGN_DATE_AND_TIME_ASSIGNMENT ( #46, #85, ( #53 ) ) ;
#174 = ORIENTED_EDGE ( 'NONE', *, *, #10, .F. ) ;
#175 = ORGANIZATION ( 'UNSPECIFIED', 'UNSPECIFIED', '' ) ;
ENDSEC;
END-ISO-10303-21;
