ISO-10303-21;
HEADER;
FILE_DESCRIPTION (( 'STEP AP203' ),
    '1' );
FILE_NAME ('Web Model 49470.STEP',
    '2017-01-31T15:22:59',
    ( '' ),
    ( '' ),
    'SwSTEP 2.0',
    'SolidWorks 2016',
    '' );
FILE_SCHEMA (( 'CONFIG_CONTROL_DESIGN' ));
ENDSEC;

DATA;
#1 = VERTEX_POINT ( 'NONE', #14 ) ;
#2 = APPROVAL_DATE_TIME ( #126, #86 ) ;
#3 = CALENDAR_DATE ( 2017, 31, 1 ) ;
#4 = PRODUCT ( 'Web Model 49470', 'Web Model 49470', '', ( #96 ) ) ;
#5 = APPROVAL_PERSON_ORGANIZATION ( #202, #186, #102 ) ;
#6 = VERTEX_POINT ( 'NONE', #165 ) ;
#7 = CC_DESIGN_DATE_AND_TIME_ASSIGNMENT ( #211, #88, ( #105 ) ) ;
#8 = EDGE_CURVE ( 'NONE', #28, #1, #69, .T. ) ;
#9 = APPROVAL_STATUS ( 'not_yet_approved' ) ;
#10 = ORIENTED_EDGE ( 'NONE', *, *, #98, .T. ) ;
#11 =( GEOMETRIC_REPRESENTATION_CONTEXT ( 3 ) GLOBAL_UNCERTAINTY_ASSIGNED_CONTEXT ( ( #40 ) ) GLOBAL_UNIT_ASSIGNED_CONTEXT ( ( #27, #193, #175 ) ) REPRESENTATION_CONTEXT ( 'NONE', 'WORKASPACE' ) );
#12 = CARTESIAN_POINT ( 'NONE',  ( 0.0000000000000000000, 35.00000000000000000, -3.000000000000000000 ) ) ;
#13 = CARTESIAN_POINT ( 'NONE',  ( 0.0000000000000000000, 35.00000000000000000, -3.000000000000000000 ) ) ;
#14 = CARTESIAN_POINT ( 'NONE',  ( 35.00000000000000000, 0.0000000000000000000, -3.000000000000000000 ) ) ;
#15 = PLANE ( 'NONE',  #150 ) ;
#16 = VECTOR ( 'NONE', #114, 1000.000000000000000 ) ;
#17 = ORIENTED_EDGE ( 'NONE', *, *, #39, .F. ) ;
#18 = EDGE_LOOP ( 'NONE', ( #104, #169, #10, #220 ) ) ;
#19 = EDGE_LOOP ( 'NONE', ( #122, #101, #107, #210 ) ) ;
#20 = ORIENTED_EDGE ( 'NONE', *, *, #139, .T. ) ;
#21 = ORGANIZATION ( 'UNSPECIFIED', 'UNSPECIFIED', '' ) ;
#22 = LINE ( 'NONE', #236, #209 ) ;
#23 = ORIENTED_EDGE ( 'NONE', *, *, #67, .T. ) ;
#24 = CC_DESIGN_APPROVAL ( #153, ( #159 ) ) ;
#25 = APPROVAL_DATE_TIME ( #227, #153 ) ;
#26 = PLANE ( 'NONE',  #188 ) ;
#27 =( LENGTH_UNIT ( ) NAMED_UNIT ( * ) SI_UNIT ( .MILLI., .METRE. ) );
#28 = VERTEX_POINT ( 'NONE', #144 ) ;
#29 = DIRECTION ( 'NONE',  ( 0.0000000000000000000, 0.0000000000000000000, 1.000000000000000000 ) ) ;
#30 = ADVANCED_FACE ( 'NONE', ( #100 ), #62, .T. ) ;
#31 = CARTESIAN_POINT ( 'NONE',  ( 0.0000000000000000000, 0.0000000000000000000, 0.0000000000000000000 ) ) ;
#32 = ORIENTED_EDGE ( 'NONE', *, *, #8, .F. ) ;
#33 = CC_DESIGN_PERSON_AND_ORGANIZATION_ASSIGNMENT ( #118, #174, ( #61 ) ) ;
#34 = PERSON_AND_ORGANIZATION ( #148, #21 ) ;
#35 = DIRECTION ( 'NONE',  ( 1.000000000000000000, 0.0000000000000000000, 0.0000000000000000000 ) ) ;
#36 = LINE ( 'NONE', #31, #183 ) ;
#37 = CALENDAR_DATE ( 2017, 31, 1 ) ;
#38 = CC_DESIGN_PERSON_AND_ORGANIZATION_ASSIGNMENT ( #43, #45, ( #159 ) ) ;
#39 = EDGE_CURVE ( 'NONE', #94, #28, #162, .T. ) ;
#40 = UNCERTAINTY_MEASURE_WITH_UNIT (LENGTH_MEASURE( 1.000000000000000100E-005 ), #27, 'distance_accuracy_value', 'NONE');
#41 = LOCAL_TIME ( 10, 22, 59.00000000000000000, #140 ) ;
#42 = AXIS2_PLACEMENT_3D ( 'NONE', #233, #127, #58 ) ;
#43 = PERSON_AND_ORGANIZATION ( #148, #21 ) ;
#44 = CC_DESIGN_PERSON_AND_ORGANIZATION_ASSIGNMENT ( #123, #121, ( #105 ) ) ;
#45 = PERSON_AND_ORGANIZATION_ROLE ( 'creator' ) ;
#46 = APPROVAL_ROLE ( '' ) ;
#47 = APPROVAL_PERSON_ORGANIZATION ( #34, #153, #213 ) ;
#48 = EDGE_CURVE ( 'NONE', #28, #206, #109, .T. ) ;
#49 = VECTOR ( 'NONE', #29, 1000.000000000000000 ) ;
#50 = COORDINATED_UNIVERSAL_TIME_OFFSET ( 5, 0, .BEHIND. ) ;
#51 = ADVANCED_FACE ( 'NONE', ( #145 ), #173, .T. ) ;
#52 = DIRECTION ( 'NONE',  ( 0.0000000000000000000, 0.0000000000000000000, -1.000000000000000000 ) ) ;
#53 = CC_DESIGN_PERSON_AND_ORGANIZATION_ASSIGNMENT ( #208, #90, ( #4 ) ) ;
#54 = EDGE_CURVE ( 'NONE', #1, #177, #106, .T. ) ;
#55 = CARTESIAN_POINT ( 'NONE',  ( 35.00000000000000000, 0.0000000000000000000, -3.000000000000000000 ) ) ;
#56 = DIRECTION ( 'NONE',  ( -1.000000000000000000, 0.0000000000000000000, 0.0000000000000000000 ) ) ;
#57 = CARTESIAN_POINT ( 'NONE',  ( 0.0000000000000000000, 0.0000000000000000000, -3.000000000000000000 ) ) ;
#58 = DIRECTION ( 'NONE',  ( 0.0000000000000000000, 0.0000000000000000000, -1.000000000000000000 ) ) ;
#59 = CARTESIAN_POINT ( 'NONE',  ( 0.0000000000000000000, 0.0000000000000000000, -3.000000000000000000 ) ) ;
#60 = VERTEX_POINT ( 'NONE', #217 ) ;
#61 = PRODUCT_DEFINITION ( 'UNKNOWN', '', #159, #204 ) ;
#62 = PLANE ( 'NONE',  #119 ) ;
#63 = EDGE_CURVE ( 'NONE', #60, #206, #205, .T. ) ;
#64 = DATE_AND_TIME ( #37, #131 ) ;
#65 = LINE ( 'NONE', #75, #147 ) ;
#66 = APPROVAL_PERSON_ORGANIZATION ( #166, #86, #46 ) ;
#67 = EDGE_CURVE ( 'NONE', #206, #177, #36, .T. ) ;
#68 = APPROVAL_STATUS ( 'not_yet_approved' ) ;
#69 = LINE ( 'NONE', #59, #16 ) ;
#70 = ORIENTED_EDGE ( 'NONE', *, *, #212, .T. ) ;
#71 = CC_DESIGN_APPROVAL ( #186, ( #61 ) ) ;
#72 = EDGE_CURVE ( 'NONE', #177, #168, #133, .T. ) ;
#73 = ORIENTED_EDGE ( 'NONE', *, *, #8, .T. ) ;
#74 = ADVANCED_FACE ( 'NONE', ( #110 ), #128, .T. ) ;
#75 = CARTESIAN_POINT ( 'NONE',  ( 0.0000000000000000000, 35.00000000000000000, -3.000000000000000000 ) ) ;
#76 = CARTESIAN_POINT ( 'NONE',  ( 35.00000000000000000, 35.00000000000000000, 0.0000000000000000000 ) ) ;
#77 = ORIENTED_EDGE ( 'NONE', *, *, #72, .T. ) ;
#78 = AXIS2_PLACEMENT_3D ( 'NONE', #57, #99, #143 ) ;
#79 = CALENDAR_DATE ( 2017, 31, 1 ) ;
#80 = CARTESIAN_POINT ( 'NONE',  ( 0.0000000000000000000, 0.0000000000000000000, -3.000000000000000000 ) ) ;
#81 = FACE_OUTER_BOUND ( 'NONE', #116, .T. ) ;
#82 = ORIENTED_EDGE ( 'NONE', *, *, #67, .F. ) ;
#83 = PRODUCT_RELATED_PRODUCT_CATEGORY ( 'detail', '', ( #4 ) ) ;
#84 = EDGE_CURVE ( 'NONE', #94, #60, #65, .T. ) ;
#85 = CLOSED_SHELL ( 'NONE', ( #30, #195, #141, #74, #51, #218 ) ) ;
#86 = APPROVAL ( #135, 'UNSPECIFIED' ) ;
#87 = FACE_OUTER_BOUND ( 'NONE', #18, .T. ) ;
#88 = DATE_TIME_ROLE ( 'classification_date' ) ;
#89 = CC_DESIGN_DATE_AND_TIME_ASSIGNMENT ( #191, #91, ( #61 ) ) ;
#90 = PERSON_AND_ORGANIZATION_ROLE ( 'design_owner' ) ;
#91 = DATE_TIME_ROLE ( 'creation_date' ) ;
#92 = CALENDAR_DATE ( 2017, 31, 1 ) ;
#93 = CC_DESIGN_PERSON_AND_ORGANIZATION_ASSIGNMENT ( #171, #189, ( #159 ) ) ;
#94 = VERTEX_POINT ( 'NONE', #13 ) ;
#95 = CARTESIAN_POINT ( 'NONE',  ( 0.0000000000000000000, 35.00000000000000000, 0.0000000000000000000 ) ) ;
#96 = MECHANICAL_CONTEXT ( 'NONE', #187, 'mechanical' ) ;
#97 = DIRECTION ( 'NONE',  ( 0.0000000000000000000, -0.0000000000000000000, 1.000000000000000000 ) ) ;
#98 = EDGE_CURVE ( 'NONE', #1, #6, #108, .T. ) ;
#99 = DIRECTION ( 'NONE',  ( 0.0000000000000000000, -1.000000000000000000, 0.0000000000000000000 ) ) ;
#100 = FACE_OUTER_BOUND ( 'NONE', #19, .T. ) ;
#101 = ORIENTED_EDGE ( 'NONE', *, *, #84, .F. ) ;
#102 = APPROVAL_ROLE ( '' ) ;
#103 = CC_DESIGN_APPROVAL ( #86, ( #105 ) ) ;
#104 = ORIENTED_EDGE ( 'NONE', *, *, #72, .F. ) ;
#105 = SECURITY_CLASSIFICATION ( '', '', #230 ) ;
#106 = LINE ( 'NONE', #231, #49 ) ;
#107 = ORIENTED_EDGE ( 'NONE', *, *, #39, .T. ) ;
#108 = LINE ( 'NONE', #55, #225 ) ;
#109 = LINE ( 'NONE', #129, #192 ) ;
#110 = FACE_OUTER_BOUND ( 'NONE', #200, .T. ) ;
#111 = CARTESIAN_POINT ( 'NONE',  ( 0.0000000000000000000, 35.00000000000000000, 0.0000000000000000000 ) ) ;
#112 = DIRECTION ( 'NONE',  ( 0.0000000000000000000, 0.0000000000000000000, 1.000000000000000000 ) ) ;
#113 = CARTESIAN_POINT ( 'NONE',  ( 0.0000000000000000000, 35.00000000000000000, -3.000000000000000000 ) ) ;
#114 = DIRECTION ( 'NONE',  ( 1.000000000000000000, 0.0000000000000000000, 0.0000000000000000000 ) ) ;
#115 = EDGE_CURVE ( 'NONE', #6, #168, #22, .T. ) ;
#116 = EDGE_LOOP ( 'NONE', ( #223, #23, #77, #20 ) ) ;
#117 = FACE_OUTER_BOUND ( 'NONE', #203, .T. ) ;
#118 = PERSON_AND_ORGANIZATION ( #148, #21 ) ;
#119 = AXIS2_PLACEMENT_3D ( 'NONE', #80, #56, #112 ) ;
#120 = ORIENTED_EDGE ( 'NONE', *, *, #115, .F. ) ;
#121 = PERSON_AND_ORGANIZATION_ROLE ( 'classification_officer' ) ;
#122 = ORIENTED_EDGE ( 'NONE', *, *, #63, .F. ) ;
#123 = PERSON_AND_ORGANIZATION ( #148, #21 ) ;
#124 = VECTOR ( 'NONE', #234, 1000.000000000000000 ) ;
#125 = AXIS2_PLACEMENT_3D ( 'NONE', #178, #52, #232 ) ;
#126 = DATE_AND_TIME ( #79, #201 ) ;
#127 = DIRECTION ( 'NONE',  ( 1.000000000000000000, 0.0000000000000000000, 0.0000000000000000000 ) ) ;
#128 = PLANE ( 'NONE',  #78 ) ;
#129 = CARTESIAN_POINT ( 'NONE',  ( 0.0000000000000000000, 0.0000000000000000000, -3.000000000000000000 ) ) ;
#130 = CARTESIAN_POINT ( 'NONE',  ( 0.0000000000000000000, 0.0000000000000000000, 0.0000000000000000000 ) ) ;
#131 = LOCAL_TIME ( 10, 22, 59.00000000000000000, #137 ) ;
#132 = DIRECTION ( 'NONE',  ( 0.0000000000000000000, 0.0000000000000000000, 1.000000000000000000 ) ) ;
#133 = LINE ( 'NONE', #142, #176 ) ;
#134 = ORIENTED_EDGE ( 'NONE', *, *, #48, .F. ) ;
#135 = APPROVAL_STATUS ( 'not_yet_approved' ) ;
#136 = MANIFOLD_SOLID_BREP ( 'Extrude1', #85 ) ;
#137 = COORDINATED_UNIVERSAL_TIME_OFFSET ( 5, 0, .BEHIND. ) ;
#138 = ORIENTED_EDGE ( 'NONE', *, *, #54, .T. ) ;
#139 = EDGE_CURVE ( 'NONE', #168, #60, #167, .T. ) ;
#140 = COORDINATED_UNIVERSAL_TIME_OFFSET ( 5, 0, .BEHIND. ) ;
#141 = ADVANCED_FACE ( 'NONE', ( #87 ), #160, .T. ) ;
#142 = CARTESIAN_POINT ( 'NONE',  ( 35.00000000000000000, 0.0000000000000000000, 0.0000000000000000000 ) ) ;
#143 = DIRECTION ( 'NONE',  ( 0.0000000000000000000, -0.0000000000000000000, -1.000000000000000000 ) ) ;
#144 = CARTESIAN_POINT ( 'NONE',  ( 0.0000000000000000000, 0.0000000000000000000, -3.000000000000000000 ) ) ;
#145 = FACE_OUTER_BOUND ( 'NONE', #164, .T. ) ;
#146 = CALENDAR_DATE ( 2017, 31, 1 ) ;
#147 = VECTOR ( 'NONE', #222, 1000.000000000000000 ) ;
#148 = PERSON ( 'UNSPECIFIED', 'UNSPECIFIED', 'UNSPECIFIED', ('UNSPECIFIED'), ('UNSPECIFIED'), ('UNSPECIFIED') ) ;
#149 = LOCAL_TIME ( 10, 22, 59.00000000000000000, #50 ) ;
#150 = AXIS2_PLACEMENT_3D ( 'NONE', #113, #158, #97 ) ;
#151 = VECTOR ( 'NONE', #235, 1000.000000000000000 ) ;
#152 = ORIENTED_EDGE ( 'NONE', *, *, #98, .F. ) ;
#153 = APPROVAL ( #68, 'UNSPECIFIED' ) ;
#154 = ORIENTED_EDGE ( 'NONE', *, *, #139, .F. ) ;
#155 = VECTOR ( 'NONE', #197, 1000.000000000000000 ) ;
#156 = CARTESIAN_POINT ( 'NONE',  ( 0.0000000000000000000, 0.0000000000000000000, 0.0000000000000000000 ) ) ;
#157 = CARTESIAN_POINT ( 'NONE',  ( 0.0000000000000000000, 0.0000000000000000000, -3.000000000000000000 ) ) ;
#158 = DIRECTION ( 'NONE',  ( 0.0000000000000000000, 1.000000000000000000, 0.0000000000000000000 ) ) ;
#159 = PRODUCT_DEFINITION_FORMATION_WITH_SPECIFIED_SOURCE ( 'ANY', '', #4, .NOT_KNOWN. ) ;
#160 = PLANE ( 'NONE',  #42 ) ;
#161 = APPLICATION_CONTEXT ( 'configuration controlled 3d designs of mechanical parts and assemblies' ) ;
#162 = LINE ( 'NONE', #157, #151 ) ;
#163 = ADVANCED_BREP_SHAPE_REPRESENTATION ( 'Web Model 49470', ( #136, #172 ), #11 ) ;
#164 = EDGE_LOOP ( 'NONE', ( #17, #185, #152, #32 ) ) ;
#165 = CARTESIAN_POINT ( 'NONE',  ( 35.00000000000000000, 35.00000000000000000, -3.000000000000000000 ) ) ;
#166 = PERSON_AND_ORGANIZATION ( #148, #21 ) ;
#167 = LINE ( 'NONE', #111, #155 ) ;
#168 = VERTEX_POINT ( 'NONE', #76 ) ;
#169 = ORIENTED_EDGE ( 'NONE', *, *, #54, .F. ) ;
#170 = LOCAL_TIME ( 10, 22, 59.00000000000000000, #215 ) ;
#171 = PERSON_AND_ORGANIZATION ( #148, #21 ) ;
#172 = AXIS2_PLACEMENT_3D ( 'NONE', #156, #179, #228 ) ;
#173 = PLANE ( 'NONE',  #125 ) ;
#174 = PERSON_AND_ORGANIZATION_ROLE ( 'creator' ) ;
#175 =( NAMED_UNIT ( * ) SI_UNIT ( $, .STERADIAN. ) SOLID_ANGLE_UNIT ( ) );
#176 = VECTOR ( 'NONE', #180, 1000.000000000000000 ) ;
#177 = VERTEX_POINT ( 'NONE', #224 ) ;
#178 = CARTESIAN_POINT ( 'NONE',  ( 0.0000000000000000000, 35.00000000000000000, -3.000000000000000000 ) ) ;
#179 = DIRECTION ( 'NONE',  ( 0.0000000000000000000, 0.0000000000000000000, 1.000000000000000000 ) ) ;
#180 = DIRECTION ( 'NONE',  ( 0.0000000000000000000, 1.000000000000000000, 0.0000000000000000000 ) ) ;
#181 = DIRECTION ( 'NONE',  ( 0.0000000000000000000, 1.000000000000000000, 0.0000000000000000000 ) ) ;
#182 = DIRECTION ( 'NONE',  ( -0.0000000000000000000, -1.000000000000000000, -0.0000000000000000000 ) ) ;
#183 = VECTOR ( 'NONE', #35, 1000.000000000000000 ) ;
#184 = SHAPE_DEFINITION_REPRESENTATION ( #190, #163 ) ;
#185 = ORIENTED_EDGE ( 'NONE', *, *, #212, .F. ) ;
#186 = APPROVAL ( #9, 'UNSPECIFIED' ) ;
#187 = APPLICATION_CONTEXT ( 'configuration controlled 3d designs of mechanical parts and assemblies' ) ;
#188 = AXIS2_PLACEMENT_3D ( 'NONE', #95, #196, #216 ) ;
#189 = PERSON_AND_ORGANIZATION_ROLE ( 'design_supplier' ) ;
#190 = PRODUCT_DEFINITION_SHAPE ( 'NONE', 'NONE',  #61 ) ;
#191 = DATE_AND_TIME ( #3, #149 ) ;
#192 = VECTOR ( 'NONE', #132, 1000.000000000000000 ) ;
#193 =( NAMED_UNIT ( * ) PLANE_ANGLE_UNIT ( ) SI_UNIT ( $, .RADIAN. ) );
#194 = APPLICATION_PROTOCOL_DEFINITION ( 'international standard', 'config_control_design', 1994, #187 ) ;
#195 = ADVANCED_FACE ( 'NONE', ( #117 ), #15, .T. ) ;
#196 = DIRECTION ( 'NONE',  ( 0.0000000000000000000, 0.0000000000000000000, -1.000000000000000000 ) ) ;
#197 = DIRECTION ( 'NONE',  ( -1.000000000000000000, -0.0000000000000000000, -0.0000000000000000000 ) ) ;
#198 = CC_DESIGN_SECURITY_CLASSIFICATION ( #105, ( #159 ) ) ;
#199 = DIRECTION ( 'NONE',  ( 0.0000000000000000000, 0.0000000000000000000, 1.000000000000000000 ) ) ;
#200 = EDGE_LOOP ( 'NONE', ( #82, #134, #73, #138 ) ) ;
#201 = LOCAL_TIME ( 10, 22, 59.00000000000000000, #207 ) ;
#202 = PERSON_AND_ORGANIZATION ( #148, #21 ) ;
#203 = EDGE_LOOP ( 'NONE', ( #154, #120, #70, #226 ) ) ;
#204 = DESIGN_CONTEXT ( 'detailed design', #161, 'design' ) ;
#205 = LINE ( 'NONE', #221, #237 ) ;
#206 = VERTEX_POINT ( 'NONE', #130 ) ;
#207 = COORDINATED_UNIVERSAL_TIME_OFFSET ( 5, 0, .BEHIND. ) ;
#208 = PERSON_AND_ORGANIZATION ( #148, #21 ) ;
#209 = VECTOR ( 'NONE', #199, 1000.000000000000000 ) ;
#210 = ORIENTED_EDGE ( 'NONE', *, *, #48, .T. ) ;
#211 = DATE_AND_TIME ( #146, #170 ) ;
#212 = EDGE_CURVE ( 'NONE', #6, #94, #219, .T. ) ;
#213 = APPROVAL_ROLE ( '' ) ;
#214 = APPLICATION_PROTOCOL_DEFINITION ( 'international standard', 'config_control_design', 1994, #161 ) ;
#215 = COORDINATED_UNIVERSAL_TIME_OFFSET ( 5, 0, .BEHIND. ) ;
#216 = DIRECTION ( 'NONE',  ( -1.000000000000000000, 0.0000000000000000000, -0.0000000000000000000 ) ) ;
#217 = CARTESIAN_POINT ( 'NONE',  ( 0.0000000000000000000, 35.00000000000000000, 0.0000000000000000000 ) ) ;
#218 = ADVANCED_FACE ( 'NONE', ( #81 ), #26, .F. ) ;
#219 = LINE ( 'NONE', #12, #124 ) ;
#220 = ORIENTED_EDGE ( 'NONE', *, *, #115, .T. ) ;
#221 = CARTESIAN_POINT ( 'NONE',  ( 0.0000000000000000000, 0.0000000000000000000, 0.0000000000000000000 ) ) ;
#222 = DIRECTION ( 'NONE',  ( 0.0000000000000000000, 0.0000000000000000000, 1.000000000000000000 ) ) ;
#223 = ORIENTED_EDGE ( 'NONE', *, *, #63, .T. ) ;
#224 = CARTESIAN_POINT ( 'NONE',  ( 35.00000000000000000, 0.0000000000000000000, 0.0000000000000000000 ) ) ;
#225 = VECTOR ( 'NONE', #181, 1000.000000000000000 ) ;
#226 = ORIENTED_EDGE ( 'NONE', *, *, #84, .T. ) ;
#227 = DATE_AND_TIME ( #92, #41 ) ;
#228 = DIRECTION ( 'NONE',  ( 1.000000000000000000, 0.0000000000000000000, 0.0000000000000000000 ) ) ;
#229 = APPROVAL_DATE_TIME ( #64, #186 ) ;
#230 = SECURITY_CLASSIFICATION_LEVEL ( 'unclassified' ) ;
#231 = CARTESIAN_POINT ( 'NONE',  ( 35.00000000000000000, 0.0000000000000000000, -3.000000000000000000 ) ) ;
#232 = DIRECTION ( 'NONE',  ( -1.000000000000000000, 0.0000000000000000000, -0.0000000000000000000 ) ) ;
#233 = CARTESIAN_POINT ( 'NONE',  ( 35.00000000000000000, 0.0000000000000000000, -3.000000000000000000 ) ) ;
#234 = DIRECTION ( 'NONE',  ( -1.000000000000000000, -0.0000000000000000000, -0.0000000000000000000 ) ) ;
#235 = DIRECTION ( 'NONE',  ( -0.0000000000000000000, -1.000000000000000000, -0.0000000000000000000 ) ) ;
#236 = CARTESIAN_POINT ( 'NONE',  ( 35.00000000000000000, 35.00000000000000000, -3.000000000000000000 ) ) ;
#237 = VECTOR ( 'NONE', #182, 1000.000000000000000 ) ;
ENDSEC;
END-ISO-10303-21;
