ISO-10303-21;
HEADER;
FILE_DESCRIPTION (( 'STEP AP203' ),
    '1' );
FILE_NAME ('Web Model 49155_49155.step',
    '2017-04-19T17:04:22',
    ( '' ),
    ( '' ),
    'SwSTEP 2.0',
    'SolidWorks 2016',
    '' );
FILE_SCHEMA (( 'CONFIG_CONTROL_DESIGN' ));
ENDSEC;

DATA;
#1 = FACE_OUTER_BOUND ( 'NONE', #125, .T. ) ;
#2 = AXIS2_PLACEMENT_3D ( 'NONE', #113, #42, #131 ) ;
#3 = COORDINATED_UNIVERSAL_TIME_OFFSET ( 5, 0, .BEHIND. ) ;
#4 = APPROVAL_ROLE ( '' ) ;
#5 = DATE_TIME_ROLE ( 'classification_date' ) ;
#6 = PRODUCT_DEFINITION_SHAPE ( 'NONE', 'NONE',  #91 ) ;
#7 = LINE ( 'NONE', #53, #51 ) ;
#8 = CARTESIAN_POINT ( 'NONE',  ( -5.000000000000000900, 0.0000000000000000000, 0.8000000000000000400 ) ) ;
#9 = EDGE_CURVE ( 'NONE', #82, #27, #67, .T. ) ;
#10 = CARTESIAN_POINT ( 'NONE',  ( 0.0000000000000000000, 0.0000000000000000000, -0.8000000000000000400 ) ) ;
#11 = DATE_TIME_ROLE ( 'creation_date' ) ;
#12 =( NAMED_UNIT ( * ) PLANE_ANGLE_UNIT ( ) SI_UNIT ( $, .RADIAN. ) );
#13 = LOCAL_TIME ( 13, 4, 22.00000000000000000, #50 ) ;
#14 = CARTESIAN_POINT ( 'NONE',  ( 0.0000000000000000000, 0.0000000000000000000, 0.8000000000000000400 ) ) ;
#15 = EDGE_LOOP ( 'NONE', ( #161, #97 ) ) ;
#16 = AXIS2_PLACEMENT_3D ( 'NONE', #101, #154, #46 ) ;
#17 = CC_DESIGN_DATE_AND_TIME_ASSIGNMENT ( #152, #5, ( #127 ) ) ;
#18 = CALENDAR_DATE ( 2017, 19, 4 ) ;
#19 = AXIS2_PLACEMENT_3D ( 'NONE', #14, #121, #59 ) ;
#20 = ORIENTED_EDGE ( 'NONE', *, *, #63, .F. ) ;
#21 = ORIENTED_EDGE ( 'NONE', *, *, #9, .F. ) ;
#22 = PERSON_AND_ORGANIZATION_ROLE ( 'classification_officer' ) ;
#23 = APPROVAL ( #118, 'UNSPECIFIED' ) ;
#24 = PERSON_AND_ORGANIZATION ( #160, #64 ) ;
#25 = PERSON_AND_ORGANIZATION ( #160, #64 ) ;
#26 = DIRECTION ( 'NONE',  ( -0.0000000000000000000, -0.0000000000000000000, -1.000000000000000000 ) ) ;
#27 = VERTEX_POINT ( 'NONE', #157 ) ;
#28 = APPROVAL ( #110, 'UNSPECIFIED' ) ;
#29 = APPROVAL_ROLE ( '' ) ;
#30 = APPROVAL_PERSON_ORGANIZATION ( #25, #78, #36 ) ;
#31 = CARTESIAN_POINT ( 'NONE',  ( 0.0000000000000000000, 0.0000000000000000000, 0.0000000000000000000 ) ) ;
#32 = CARTESIAN_POINT ( 'NONE',  ( 0.0000000000000000000, 0.0000000000000000000, 0.8000000000000000400 ) ) ;
#33 = CC_DESIGN_PERSON_AND_ORGANIZATION_ASSIGNMENT ( #167, #103, ( #91 ) ) ;
#34 = FACE_OUTER_BOUND ( 'NONE', #61, .T. ) ;
#35 = PERSON_AND_ORGANIZATION ( #160, #64 ) ;
#36 = APPROVAL_ROLE ( '' ) ;
#37 = CC_DESIGN_DATE_AND_TIME_ASSIGNMENT ( #164, #11, ( #91 ) ) ;
#38 = ADVANCED_FACE ( 'NONE', ( #130 ), #39, .T. ) ;
#39 = CYLINDRICAL_SURFACE ( 'NONE', #162, 5.000000000000000900 ) ;
#40 = CLOSED_SHELL ( 'NONE', ( #139, #38, #148, #79 ) ) ;
#41 = DIRECTION ( 'NONE',  ( 1.000000000000000000, 0.0000000000000000000, 0.0000000000000000000 ) ) ;
#42 = DIRECTION ( 'NONE',  ( 0.0000000000000000000, 0.0000000000000000000, 1.000000000000000000 ) ) ;
#43 = CIRCLE ( 'NONE', #16, 5.000000000000000900 ) ;
#44 = APPLICATION_PROTOCOL_DEFINITION ( 'international standard', 'config_control_design', 1994, #133 ) ;
#45 = PRODUCT_DEFINITION_FORMATION_WITH_SPECIFIED_SOURCE ( 'ANY', '', #171, .NOT_KNOWN. ) ;
#46 = DIRECTION ( 'NONE',  ( 1.000000000000000000, 0.0000000000000000000, 0.0000000000000000000 ) ) ;
#47 = APPROVAL_DATE_TIME ( #54, #23 ) ;
#48 = APPROVAL_PERSON_ORGANIZATION ( #35, #23, #29 ) ;
#49 = DIRECTION ( 'NONE',  ( 0.0000000000000000000, 0.0000000000000000000, 1.000000000000000000 ) ) ;
#50 = COORDINATED_UNIVERSAL_TIME_OFFSET ( 5, 0, .BEHIND. ) ;
#51 = VECTOR ( 'NONE', #114, 1000.000000000000000 ) ;
#52 = CARTESIAN_POINT ( 'NONE',  ( 0.0000000000000000000, 0.0000000000000000000, 0.8000000000000000400 ) ) ;
#53 = CARTESIAN_POINT ( 'NONE',  ( 5.000000000000000900, 6.123233995736767300E-016, 0.8000000000000000400 ) ) ;
#54 = DATE_AND_TIME ( #132, #146 ) ;
#55 = ORIENTED_EDGE ( 'NONE', *, *, #81, .T. ) ;
#56 = CC_DESIGN_APPROVAL ( #28, ( #127 ) ) ;
#57 = PERSON_AND_ORGANIZATION_ROLE ( 'design_owner' ) ;
#58 = LOCAL_TIME ( 13, 4, 22.00000000000000000, #84 ) ;
#59 = DIRECTION ( 'NONE',  ( 1.000000000000000000, 0.0000000000000000000, -0.0000000000000000000 ) ) ;
#60 = CALENDAR_DATE ( 2017, 19, 4 ) ;
#61 = EDGE_LOOP ( 'NONE', ( #117, #21 ) ) ;
#62 = APPROVAL_DATE_TIME ( #89, #78 ) ;
#63 = EDGE_CURVE ( 'NONE', #88, #27, #134, .T. ) ;
#64 = ORGANIZATION ( 'UNSPECIFIED', 'UNSPECIFIED', '' ) ;
#65 = PRODUCT_RELATED_PRODUCT_CATEGORY ( 'detail', '', ( #171 ) ) ;
#66 = DIRECTION ( 'NONE',  ( 0.0000000000000000000, 0.0000000000000000000, 1.000000000000000000 ) ) ;
#67 = CIRCLE ( 'NONE', #135, 5.000000000000000900 ) ;
#68 = DIRECTION ( 'NONE',  ( 0.0000000000000000000, 0.0000000000000000000, 1.000000000000000000 ) ) ;
#69 = APPLICATION_PROTOCOL_DEFINITION ( 'international standard', 'config_control_design', 1994, #86 ) ;
#70 = DIRECTION ( 'NONE',  ( 1.000000000000000000, 0.0000000000000000000, 0.0000000000000000000 ) ) ;
#71 = CC_DESIGN_APPROVAL ( #23, ( #91 ) ) ;
#72 = LOCAL_TIME ( 13, 4, 22.00000000000000000, #143 ) ;
#73 = PERSON_AND_ORGANIZATION_ROLE ( 'creator' ) ;
#74 = CARTESIAN_POINT ( 'NONE',  ( 0.0000000000000000000, 0.0000000000000000000, -0.8000000000000000400 ) ) ;
#75 = DIRECTION ( 'NONE',  ( -0.0000000000000000000, -0.0000000000000000000, -1.000000000000000000 ) ) ;
#76 = APPROVAL_DATE_TIME ( #112, #28 ) ;
#77 = SHAPE_DEFINITION_REPRESENTATION ( #6, #102 ) ;
#78 = APPROVAL ( #172, 'UNSPECIFIED' ) ;
#79 = ADVANCED_FACE ( 'NONE', ( #34 ), #153, .F. ) ;
#80 = APPROVAL_PERSON_ORGANIZATION ( #120, #28, #4 ) ;
#81 = EDGE_CURVE ( 'NONE', #27, #82, #100, .T. ) ;
#82 = VERTEX_POINT ( 'NONE', #99 ) ;
#83 = SECURITY_CLASSIFICATION_LEVEL ( 'unclassified' ) ;
#84 = COORDINATED_UNIVERSAL_TIME_OFFSET ( 5, 0, .BEHIND. ) ;
#85 = COORDINATED_UNIVERSAL_TIME_OFFSET ( 5, 0, .BEHIND. ) ;
#86 = APPLICATION_CONTEXT ( 'configuration controlled 3d designs of mechanical parts and assemblies' ) ;
#87 = CARTESIAN_POINT ( 'NONE',  ( 0.0000000000000000000, 0.0000000000000000000, -0.8000000000000000400 ) ) ;
#88 = VERTEX_POINT ( 'NONE', #141 ) ;
#89 = DATE_AND_TIME ( #129, #72 ) ;
#90 =( NAMED_UNIT ( * ) SI_UNIT ( $, .STERADIAN. ) SOLID_ANGLE_UNIT ( ) );
#91 = PRODUCT_DEFINITION ( 'UNKNOWN', '', #45, #104 ) ;
#92 = ORIENTED_EDGE ( 'NONE', *, *, #115, .F. ) ;
#93 = CC_DESIGN_PERSON_AND_ORGANIZATION_ASSIGNMENT ( #96, #57, ( #171 ) ) ;
#94 = VECTOR ( 'NONE', #75, 1000.000000000000000 ) ;
#95 = CC_DESIGN_APPROVAL ( #78, ( #45 ) ) ;
#96 = PERSON_AND_ORGANIZATION ( #160, #64 ) ;
#97 = ORIENTED_EDGE ( 'NONE', *, *, #108, .T. ) ;
#98 =( GEOMETRIC_REPRESENTATION_CONTEXT ( 3 ) GLOBAL_UNCERTAINTY_ASSIGNED_CONTEXT ( ( #136 ) ) GLOBAL_UNIT_ASSIGNED_CONTEXT ( ( #105, #12, #90 ) ) REPRESENTATION_CONTEXT ( 'NONE', 'WORKASPACE' ) );
#99 = CARTESIAN_POINT ( 'NONE',  ( 5.000000000000000900, 6.123233995736767300E-016, -0.8000000000000000400 ) ) ;
#100 = CIRCLE ( 'NONE', #142, 5.000000000000000900 ) ;
#101 = CARTESIAN_POINT ( 'NONE',  ( 0.0000000000000000000, 0.0000000000000000000, 0.8000000000000000400 ) ) ;
#102 = ADVANCED_BREP_SHAPE_REPRESENTATION ( 'Web Model 49155_49155', ( #166, #163 ), #98 ) ;
#103 = PERSON_AND_ORGANIZATION_ROLE ( 'creator' ) ;
#104 = DESIGN_CONTEXT ( 'detailed design', #133, 'design' ) ;
#105 =( LENGTH_UNIT ( ) NAMED_UNIT ( * ) SI_UNIT ( .MILLI., .METRE. ) );
#106 = DIRECTION ( 'NONE',  ( -1.000000000000000000, 0.0000000000000000000, 0.0000000000000000000 ) ) ;
#107 = AXIS2_PLACEMENT_3D ( 'NONE', #32, #155, #106 ) ;
#108 = EDGE_CURVE ( 'NONE', #150, #88, #168, .T. ) ;
#109 = CC_DESIGN_PERSON_AND_ORGANIZATION_ASSIGNMENT ( #158, #151, ( #45 ) ) ;
#110 = APPROVAL_STATUS ( 'not_yet_approved' ) ;
#111 = MECHANICAL_CONTEXT ( 'NONE', #86, 'mechanical' ) ;
#112 = DATE_AND_TIME ( #149, #13 ) ;
#113 = CARTESIAN_POINT ( 'NONE',  ( 0.0000000000000000000, 0.0000000000000000000, 0.8000000000000000400 ) ) ;
#114 = DIRECTION ( 'NONE',  ( -0.0000000000000000000, -0.0000000000000000000, -1.000000000000000000 ) ) ;
#115 = EDGE_CURVE ( 'NONE', #88, #150, #43, .T. ) ;
#116 = CC_DESIGN_PERSON_AND_ORGANIZATION_ASSIGNMENT ( #24, #73, ( #45 ) ) ;
#117 = ORIENTED_EDGE ( 'NONE', *, *, #81, .F. ) ;
#118 = APPROVAL_STATUS ( 'not_yet_approved' ) ;
#119 = DIRECTION ( 'NONE',  ( 0.0000000000000000000, 0.0000000000000000000, 1.000000000000000000 ) ) ;
#120 = PERSON_AND_ORGANIZATION ( #160, #64 ) ;
#121 = DIRECTION ( 'NONE',  ( 0.0000000000000000000, 0.0000000000000000000, 1.000000000000000000 ) ) ;
#122 = ORIENTED_EDGE ( 'NONE', *, *, #126, .F. ) ;
#123 = CC_DESIGN_PERSON_AND_ORGANIZATION_ASSIGNMENT ( #124, #22, ( #127 ) ) ;
#124 = PERSON_AND_ORGANIZATION ( #160, #64 ) ;
#125 = EDGE_LOOP ( 'NONE', ( #156, #144, #165, #20 ) ) ;
#126 = EDGE_CURVE ( 'NONE', #150, #82, #7, .T. ) ;
#127 = SECURITY_CLASSIFICATION ( '', '', #83 ) ;
#128 = DIRECTION ( 'NONE',  ( 1.000000000000000000, 0.0000000000000000000, -0.0000000000000000000 ) ) ;
#129 = CALENDAR_DATE ( 2017, 19, 4 ) ;
#130 = FACE_OUTER_BOUND ( 'NONE', #173, .T. ) ;
#131 = DIRECTION ( 'NONE',  ( 1.000000000000000000, 0.0000000000000000000, 0.0000000000000000000 ) ) ;
#132 = CALENDAR_DATE ( 2017, 19, 4 ) ;
#133 = APPLICATION_CONTEXT ( 'configuration controlled 3d designs of mechanical parts and assemblies' ) ;
#134 = LINE ( 'NONE', #8, #94 ) ;
#135 = AXIS2_PLACEMENT_3D ( 'NONE', #87, #68, #70 ) ;
#136 = UNCERTAINTY_MEASURE_WITH_UNIT (LENGTH_MEASURE( 1.000000000000000100E-005 ), #105, 'distance_accuracy_value', 'NONE');
#137 = CC_DESIGN_SECURITY_CLASSIFICATION ( #127, ( #45 ) ) ;
#138 = LOCAL_TIME ( 13, 4, 22.00000000000000000, #85 ) ;
#139 = ADVANCED_FACE ( 'NONE', ( #1 ), #145, .T. ) ;
#140 = FACE_OUTER_BOUND ( 'NONE', #15, .T. ) ;
#141 = CARTESIAN_POINT ( 'NONE',  ( -5.000000000000000900, 0.0000000000000000000, 0.8000000000000000400 ) ) ;
#142 = AXIS2_PLACEMENT_3D ( 'NONE', #10, #66, #169 ) ;
#143 = COORDINATED_UNIVERSAL_TIME_OFFSET ( 5, 0, .BEHIND. ) ;
#144 = ORIENTED_EDGE ( 'NONE', *, *, #126, .T. ) ;
#145 = CYLINDRICAL_SURFACE ( 'NONE', #107, 5.000000000000000900 ) ;
#146 = LOCAL_TIME ( 13, 4, 22.00000000000000000, #3 ) ;
#147 = ORIENTED_EDGE ( 'NONE', *, *, #63, .T. ) ;
#148 = ADVANCED_FACE ( 'NONE', ( #140 ), #159, .T. ) ;
#149 = CALENDAR_DATE ( 2017, 19, 4 ) ;
#150 = VERTEX_POINT ( 'NONE', #175 ) ;
#151 = PERSON_AND_ORGANIZATION_ROLE ( 'design_supplier' ) ;
#152 = DATE_AND_TIME ( #18, #58 ) ;
#153 = PLANE ( 'NONE',  #170 ) ;
#154 = DIRECTION ( 'NONE',  ( 0.0000000000000000000, 0.0000000000000000000, 1.000000000000000000 ) ) ;
#155 = DIRECTION ( 'NONE',  ( -0.0000000000000000000, -0.0000000000000000000, -1.000000000000000000 ) ) ;
#156 = ORIENTED_EDGE ( 'NONE', *, *, #108, .F. ) ;
#157 = CARTESIAN_POINT ( 'NONE',  ( -5.000000000000000900, 0.0000000000000000000, -0.8000000000000000400 ) ) ;
#158 = PERSON_AND_ORGANIZATION ( #160, #64 ) ;
#159 = PLANE ( 'NONE',  #19 ) ;
#160 = PERSON ( 'UNSPECIFIED', 'UNSPECIFIED', 'UNSPECIFIED', ('UNSPECIFIED'), ('UNSPECIFIED'), ('UNSPECIFIED') ) ;
#161 = ORIENTED_EDGE ( 'NONE', *, *, #115, .T. ) ;
#162 = AXIS2_PLACEMENT_3D ( 'NONE', #52, #26, #174 ) ;
#163 = AXIS2_PLACEMENT_3D ( 'NONE', #31, #119, #41 ) ;
#164 = DATE_AND_TIME ( #60, #138 ) ;
#165 = ORIENTED_EDGE ( 'NONE', *, *, #9, .T. ) ;
#166 = MANIFOLD_SOLID_BREP ( 'Boss-Extrude1', #40 ) ;
#167 = PERSON_AND_ORGANIZATION ( #160, #64 ) ;
#168 = CIRCLE ( 'NONE', #2, 5.000000000000000900 ) ;
#169 = DIRECTION ( 'NONE',  ( 1.000000000000000000, 0.0000000000000000000, 0.0000000000000000000 ) ) ;
#170 = AXIS2_PLACEMENT_3D ( 'NONE', #74, #49, #128 ) ;
#171 = PRODUCT ( 'Web Model 49155_49155', 'Web Model 49155_49155', '', ( #111 ) ) ;
#172 = APPROVAL_STATUS ( 'not_yet_approved' ) ;
#173 = EDGE_LOOP ( 'NONE', ( #122, #92, #147, #55 ) ) ;
#174 = DIRECTION ( 'NONE',  ( -1.000000000000000000, 0.0000000000000000000, 0.0000000000000000000 ) ) ;
#175 = CARTESIAN_POINT ( 'NONE',  ( 5.000000000000000900, 6.123233995736767300E-016, 0.8000000000000000400 ) ) ;
ENDSEC;
END-ISO-10303-21;
