ISO-10303-21;
HEADER;
FILE_DESCRIPTION (( 'STEP AP203' ),
    '1' );
FILE_NAME ('Web Model 66633_66633.step',
    '2018-01-04T15:17:54',
    ( '' ),
    ( '' ),
    'SwSTEP 2.0',
    'SolidWorks 2016',
    '' );
FILE_SCHEMA (( 'CONFIG_CONTROL_DESIGN' ));
ENDSEC;

DATA;
#1 = PERSON_AND_ORGANIZATION ( #363, #299 ) ;
#2 = ADVANCED_FACE ( 'NONE', ( #81 ), #163, .T. ) ;
#3 = EDGE_LOOP ( 'NONE', ( #208, #271, #272, #320 ) ) ;
#4 = PERSON_AND_ORGANIZATION_ROLE ( 'creator' ) ;
#5 = DESIGN_CONTEXT ( 'detailed design', #230, 'design' ) ;
#6 = PERSON_AND_ORGANIZATION_ROLE ( 'classification_officer' ) ;
#7 = ORIENTED_EDGE ( 'NONE', *, *, #47, .F. ) ;
#8 = PERSON_AND_ORGANIZATION ( #363, #299 ) ;
#9 = VECTOR ( 'NONE', #104, 1000.000000000000000 ) ;
#10 = EDGE_LOOP ( 'NONE', ( #261, #341, #300, #289 ) ) ;
#11 = PRODUCT_DEFINITION ( 'UNKNOWN', '', #249, #5 ) ;
#12 = LINE ( 'NONE', #191, #46 ) ;
#13 = VERTEX_POINT ( 'NONE', #52 ) ;
#14 = EDGE_CURVE ( 'NONE', #13, #21, #12, .T. ) ;
#15 = VERTEX_POINT ( 'NONE', #215 ) ;
#16 = CARTESIAN_POINT ( 'NONE',  ( -1.263835496720068500E-015, 28.28000000000000100, 10.00000000000000000 ) ) ;
#17 = AXIS2_PLACEMENT_3D ( 'NONE', #28, #91, #124 ) ;
#18 = CALENDAR_DATE ( 2018, 4, 1 ) ;
#19 = CARTESIAN_POINT ( 'NONE',  ( -8.939921633775678800E-016, 20.00000000000000000, 10.00000000000000000 ) ) ;
#20 = EDGE_CURVE ( 'NONE', #345, #240, #378, .T. ) ;
#21 = VERTEX_POINT ( 'NONE', #252 ) ;
#22 = ORIENTED_EDGE ( 'NONE', *, *, #257, .T. ) ;
#23 = DIRECTION ( 'NONE',  ( -4.469960816887839200E-017, 1.000000000000000000, -0.0000000000000000000 ) ) ;
#24 = PRODUCT_RELATED_PRODUCT_CATEGORY ( 'detail', '', ( #323 ) ) ;
#25 = CARTESIAN_POINT ( 'NONE',  ( -8.939921633775678800E-016, 20.00000000000000000, 10.00000000000000000 ) ) ;
#26 = EDGE_CURVE ( 'NONE', #309, #340, #354, .T. ) ;
#27 = LINE ( 'NONE', #325, #332 ) ;
#28 = CARTESIAN_POINT ( 'NONE',  ( 0.0000000000000000000, 0.0000000000000000000, 10.00000000000000000 ) ) ;
#29 = PERSON_AND_ORGANIZATION ( #363, #299 ) ;
#30 = DIRECTION ( 'NONE',  ( 0.7073615732206178800, 0.7068518973100745800, 0.0000000000000000000 ) ) ;
#31 = VECTOR ( 'NONE', #171, 1000.000000000000200 ) ;
#32 = ADVANCED_FACE ( 'NONE', ( #156 ), #166, .F. ) ;
#33 = EDGE_LOOP ( 'NONE', ( #116, #159, #231, #275 ) ) ;
#34 = MECHANICAL_CONTEXT ( 'NONE', #37, 'mechanical' ) ;
#35 = ORIENTED_EDGE ( 'NONE', *, *, #20, .F. ) ;
#36 = VERTEX_POINT ( 'NONE', #85 ) ;
#37 = APPLICATION_CONTEXT ( 'configuration controlled 3d designs of mechanical parts and assemblies' ) ;
#38 = DIRECTION ( 'NONE',  ( 0.0000000000000000000, 0.0000000000000000000, 1.000000000000000000 ) ) ;
#39 = LINE ( 'NONE', #348, #270 ) ;
#40 = ORIENTED_EDGE ( 'NONE', *, *, #47, .T. ) ;
#41 = APPROVAL ( #238, 'UNSPECIFIED' ) ;
#42 = ORIENTED_EDGE ( 'NONE', *, *, #355, .T. ) ;
#43 = AXIS2_PLACEMENT_3D ( 'NONE', #291, #65, #220 ) ;
#44 = LINE ( 'NONE', #296, #93 ) ;
#45 = EDGE_CURVE ( 'NONE', #340, #240, #306, .T. ) ;
#46 = VECTOR ( 'NONE', #218, 1000.000000000000200 ) ;
#47 = EDGE_CURVE ( 'NONE', #344, #207, #39, .T. ) ;
#48 = EDGE_LOOP ( 'NONE', ( #335, #358, #22, #115 ) ) ;
#49 = CARTESIAN_POINT ( 'NONE',  ( -20.00410207932363000, 28.28000000000000100, 10.00000000000000000 ) ) ;
#50 = CARTESIAN_POINT ( 'NONE',  ( -20.00410207932363000, 28.28000000000000100, 10.00000000000000000 ) ) ;
#51 = FACE_OUTER_BOUND ( 'NONE', #188, .T. ) ;
#52 = CARTESIAN_POINT ( 'NONE',  ( -8.939921633775678800E-016, 20.00000000000000000, 10.00000000000000000 ) ) ;
#53 = VECTOR ( 'NONE', #286, 1000.000000000000000 ) ;
#54 = FACE_OUTER_BOUND ( 'NONE', #357, .T. ) ;
#55 = DIRECTION ( 'NONE',  ( 0.9239770013544401600, -0.3824480369515010900, 0.0000000000000000000 ) ) ;
#56 = ORIENTED_EDGE ( 'NONE', *, *, #45, .F. ) ;
#57 = DIRECTION ( 'NONE',  ( -0.0000000000000000000, -0.0000000000000000000, -1.000000000000000000 ) ) ;
#58 = DIRECTION ( 'NONE',  ( -0.3829188029382516500, 0.9237820036980241000, 0.0000000000000000000 ) ) ;
#59 = CALENDAR_DATE ( 2018, 4, 1 ) ;
#60 = EDGE_CURVE ( 'NONE', #89, #15, #350, .T. ) ;
#61 = APPROVAL ( #201, 'UNSPECIFIED' ) ;
#62 = PRODUCT_DEFINITION_SHAPE ( 'NONE', 'NONE',  #11 ) ;
#63 = CARTESIAN_POINT ( 'NONE',  ( -28.29019208361315000, 19.99988038006222300, -10.00000000000000000 ) ) ;
#64 = ORIENTED_EDGE ( 'NONE', *, *, #251, .T. ) ;
#65 = DIRECTION ( 'NONE',  ( 0.0000000000000000000, 0.0000000000000000000, -1.000000000000000000 ) ) ;
#66 = LINE ( 'NONE', #362, #132 ) ;
#67 = PLANE ( 'NONE',  #154 ) ;
#68 = CC_DESIGN_PERSON_AND_ORGANIZATION_ASSIGNMENT ( #157, #269, ( #249 ) ) ;
#69 = DIRECTION ( 'NONE',  ( -0.0000000000000000000, -0.0000000000000000000, -1.000000000000000000 ) ) ;
#70 =( LENGTH_UNIT ( ) NAMED_UNIT ( * ) SI_UNIT ( .MILLI., .METRE. ) );
#71 = PERSON_AND_ORGANIZATION ( #363, #299 ) ;
#72 = ADVANCED_FACE ( 'NONE', ( #244 ), #217, .T. ) ;
#73 = LINE ( 'NONE', #385, #86 ) ;
#74 = PERSON_AND_ORGANIZATION_ROLE ( 'design_owner' ) ;
#75 = CARTESIAN_POINT ( 'NONE',  ( 0.0000000000000000000, 0.0000000000000000000, 0.0000000000000000000 ) ) ;
#76 = ORIENTED_EDGE ( 'NONE', *, *, #274, .T. ) ;
#77 = AXIS2_PLACEMENT_3D ( 'NONE', #196, #223, #319 ) ;
#78 = APPROVAL_DATE_TIME ( #111, #61 ) ;
#79 = LINE ( 'NONE', #101, #347 ) ;
#80 = VECTOR ( 'NONE', #276, 1000.000000000000200 ) ;
#81 = FACE_OUTER_BOUND ( 'NONE', #10, .T. ) ;
#82 = VERTEX_POINT ( 'NONE', #164 ) ;
#83 = VECTOR ( 'NONE', #23, 1000.000000000000000 ) ;
#84 = EDGE_CURVE ( 'NONE', #13, #153, #96, .T. ) ;
#85 = CARTESIAN_POINT ( 'NONE',  ( -20.00410207932363000, 28.28000000000000100, -10.00000000000000000 ) ) ;
#86 = VECTOR ( 'NONE', #259, 1000.000000000000200 ) ;
#87 = DIRECTION ( 'NONE',  ( 1.000000000000000000, 4.466706924426336800E-017, -0.0000000000000000000 ) ) ;
#88 = AXIS2_PLACEMENT_3D ( 'NONE', #198, #92, #254 ) ;
#89 = VERTEX_POINT ( 'NONE', #139 ) ;
#90 = DIRECTION ( 'NONE',  ( 0.0000000000000000000, -0.0000000000000000000, 1.000000000000000000 ) ) ;
#91 = DIRECTION ( 'NONE',  ( 0.0000000000000000000, 0.0000000000000000000, -1.000000000000000000 ) ) ;
#92 = DIRECTION ( 'NONE',  ( -0.3824480369515011500, -0.9239770013544402700, 0.0000000000000000000 ) ) ;
#93 = VECTOR ( 'NONE', #69, 1000.000000000000000 ) ;
#94 = VECTOR ( 'NONE', #290, 1000.000000000000000 ) ;
#95 = CARTESIAN_POINT ( 'NONE',  ( -20.00000000000000000, -2.449293598294706500E-015, 10.00000000000000000 ) ) ;
#96 = LINE ( 'NONE', #381, #293 ) ;
#97 = DIRECTION ( 'NONE',  ( -1.000000000000000000, 0.0000000000000000000, -0.0000000000000000000 ) ) ;
#98 = ORIENTED_EDGE ( 'NONE', *, *, #113, .F. ) ;
#99 = PLANE ( 'NONE',  #256 ) ;
#100 = DIRECTION ( 'NONE',  ( 0.0000000000000000000, 0.0000000000000000000, -1.000000000000000000 ) ) ;
#101 = CARTESIAN_POINT ( 'NONE',  ( 0.0000000000000000000, 0.0000000000000000000, -10.00000000000000000 ) ) ;
#102 = VECTOR ( 'NONE', #374, 1000.000000000000000 ) ;
#103 = ORIENTED_EDGE ( 'NONE', *, *, #14, .F. ) ;
#104 = DIRECTION ( 'NONE',  ( 4.466706924426336800E-017, -1.000000000000000000, 0.0000000000000000000 ) ) ;
#105 = AXIS2_PLACEMENT_3D ( 'NONE', #49, #250, #55 ) ;
#106 = ORIENTED_EDGE ( 'NONE', *, *, #322, .T. ) ;
#107 = CARTESIAN_POINT ( 'NONE',  ( 0.0000000000000000000, 0.0000000000000000000, 10.00000000000000000 ) ) ;
#108 = FACE_OUTER_BOUND ( 'NONE', #3, .T. ) ;
#109 = ORIENTED_EDGE ( 'NONE', *, *, #273, .T. ) ;
#110 = COORDINATED_UNIVERSAL_TIME_OFFSET ( 5, 0, .BEHIND. ) ;
#111 = DATE_AND_TIME ( #383, #278 ) ;
#112 = DATE_AND_TIME ( #182, #370 ) ;
#113 = EDGE_CURVE ( 'NONE', #153, #36, #143, .T. ) ;
#114 = DIRECTION ( 'NONE',  ( -0.0000000000000000000, -0.0000000000000000000, -1.000000000000000000 ) ) ;
#115 = ORIENTED_EDGE ( 'NONE', *, *, #60, .T. ) ;
#116 = ORIENTED_EDGE ( 'NONE', *, *, #303, .T. ) ;
#117 = CARTESIAN_POINT ( 'NONE',  ( -20.00410207932363000, 28.28000000000000100, 10.00000000000000000 ) ) ;
#118 = ORIENTED_EDGE ( 'NONE', *, *, #375, .T. ) ;
#119 = DIRECTION ( 'NONE',  ( 0.0000000000000000000, 1.000000000000000000, 0.0000000000000000000 ) ) ;
#120 = VERTEX_POINT ( 'NONE', #141 ) ;
#121 = PLANE ( 'NONE',  #130 ) ;
#122 = EDGE_CURVE ( 'NONE', #82, #239, #368, .T. ) ;
#123 = CALENDAR_DATE ( 2018, 4, 1 ) ;
#124 = DIRECTION ( 'NONE',  ( -1.000000000000000000, 0.0000000000000000000, -0.0000000000000000000 ) ) ;
#125 = COORDINATED_UNIVERSAL_TIME_OFFSET ( 5, 0, .BEHIND. ) ;
#126 = PLANE ( 'NONE',  #88 ) ;
#127 = CARTESIAN_POINT ( 'NONE',  ( -20.00410207932363000, 28.28000000000000100, -10.00000000000000000 ) ) ;
#128 = ADVANCED_FACE ( 'NONE', ( #227 ), #129, .F. ) ;
#129 = PLANE ( 'NONE',  #77 ) ;
#130 = AXIS2_PLACEMENT_3D ( 'NONE', #313, #169, #97 ) ;
#131 = SECURITY_CLASSIFICATION_LEVEL ( 'unclassified' ) ;
#132 = VECTOR ( 'NONE', #178, 1000.000000000000000 ) ;
#133 = CARTESIAN_POINT ( 'NONE',  ( 0.0000000000000000000, 0.0000000000000000000, 10.00000000000000000 ) ) ;
#134 = ORIENTED_EDGE ( 'NONE', *, *, #281, .T. ) ;
#135 = VERTEX_POINT ( 'NONE', #352 ) ;
#136 = PERSON_AND_ORGANIZATION ( #363, #299 ) ;
#137 = MANIFOLD_SOLID_BREP ( 'Boss-Extrude2', #318 ) ;
#138 = LINE ( 'NONE', #144, #305 ) ;
#139 = CARTESIAN_POINT ( 'NONE',  ( -1.263835496720068500E-015, 28.28000000000000100, 10.00000000000000000 ) ) ;
#140 = LOCAL_TIME ( 10, 17, 54.00000000000000000, #224 ) ;
#141 = CARTESIAN_POINT ( 'NONE',  ( -20.00000000000000000, -2.449293598294706500E-015, -10.00000000000000000 ) ) ;
#142 = APPROVAL_PERSON_ORGANIZATION ( #384, #61, #152 ) ;
#143 = LINE ( 'NONE', #380, #80 ) ;
#144 = CARTESIAN_POINT ( 'NONE',  ( -28.29019208361315000, 19.99988038006222300, -10.00000000000000000 ) ) ;
#145 = PLANE ( 'NONE',  #17 ) ;
#146 = CC_DESIGN_APPROVAL ( #41, ( #249 ) ) ;
#147 = CARTESIAN_POINT ( 'NONE',  ( -8.939921633775678800E-016, 20.00000000000000000, -10.00000000000000000 ) ) ;
#148 = ORIENTED_EDGE ( 'NONE', *, *, #155, .F. ) ;
#149 = DIRECTION ( 'NONE',  ( -1.000000000000000000, -1.224646799147353200E-016, 0.0000000000000000000 ) ) ;
#150 = DIRECTION ( 'NONE',  ( 1.000000000000000000, 1.224646799147353200E-016, -0.0000000000000000000 ) ) ;
#151 = APPLICATION_PROTOCOL_DEFINITION ( 'international standard', 'config_control_design', 1994, #230 ) ;
#152 = APPROVAL_ROLE ( '' ) ;
#153 = VERTEX_POINT ( 'NONE', #147 ) ;
#154 = AXIS2_PLACEMENT_3D ( 'NONE', #107, #321, #149 ) ;
#155 = EDGE_CURVE ( 'NONE', #207, #120, #377, .T. ) ;
#156 = FACE_OUTER_BOUND ( 'NONE', #33, .T. ) ;
#157 = PERSON_AND_ORGANIZATION ( #363, #299 ) ;
#158 = DIRECTION ( 'NONE',  ( -4.469960816887839200E-017, 1.000000000000000000, -0.0000000000000000000 ) ) ;
#159 = ORIENTED_EDGE ( 'NONE', *, *, #122, .F. ) ;
#160 = CC_DESIGN_PERSON_AND_ORGANIZATION_ASSIGNMENT ( #1, #181, ( #249 ) ) ;
#161 = DIRECTION ( 'NONE',  ( -4.466706924426336800E-017, 1.000000000000000000, 0.0000000000000000000 ) ) ;
#162 = ORIENTED_EDGE ( 'NONE', *, *, #26, .T. ) ;
#163 = PLANE ( 'NONE',  #288 ) ;
#164 = CARTESIAN_POINT ( 'NONE',  ( -20.00410207932363000, 28.28000000000000100, 10.00000000000000000 ) ) ;
#165 = FACE_OUTER_BOUND ( 'NONE', #295, .T. ) ;
#166 = PLANE ( 'NONE',  #105 ) ;
#167 = ORIENTED_EDGE ( 'NONE', *, *, #257, .F. ) ;
#168 = ORIENTED_EDGE ( 'NONE', *, *, #155, .T. ) ;
#169 = DIRECTION ( 'NONE',  ( 0.0000000000000000000, 0.0000000000000000000, -1.000000000000000000 ) ) ;
#170 = EDGE_CURVE ( 'NONE', #345, #82, #349, .T. ) ;
#171 = DIRECTION ( 'NONE',  ( -0.9239770013544401600, 0.3824480369515010900, -0.0000000000000000000 ) ) ;
#172 = LINE ( 'NONE', #205, #9 ) ;
#173 = DIRECTION ( 'NONE',  ( 0.3829188029382516500, -0.9237820036980242100, -0.0000000000000000000 ) ) ;
#174 = DIRECTION ( 'NONE',  ( -1.000000000000000000, 0.0000000000000000000, -0.0000000000000000000 ) ) ;
#175 = LINE ( 'NONE', #330, #371 ) ;
#176 = LINE ( 'NONE', #353, #94 ) ;
#177 = FACE_OUTER_BOUND ( 'NONE', #379, .T. ) ;
#178 = DIRECTION ( 'NONE',  ( 1.000000000000000000, 0.0000000000000000000, 0.0000000000000000000 ) ) ;
#179 = AXIS2_PLACEMENT_3D ( 'NONE', #263, #100, #174 ) ;
#180 = APPLICATION_PROTOCOL_DEFINITION ( 'international standard', 'config_control_design', 1994, #37 ) ;
#181 = PERSON_AND_ORGANIZATION_ROLE ( 'design_supplier' ) ;
#182 = CALENDAR_DATE ( 2018, 4, 1 ) ;
#183 = APPROVAL_DATE_TIME ( #343, #41 ) ;
#184 = FACE_OUTER_BOUND ( 'NONE', #307, .T. ) ;
#185 = ORIENTED_EDGE ( 'NONE', *, *, #273, .F. ) ;
#186 = COORDINATED_UNIVERSAL_TIME_OFFSET ( 5, 0, .BEHIND. ) ;
#187 = CC_DESIGN_DATE_AND_TIME_ASSIGNMENT ( #314, #241, ( #11 ) ) ;
#188 = EDGE_LOOP ( 'NONE', ( #167, #103, #203 ) ) ;
#189 = ORIENTED_EDGE ( 'NONE', *, *, #170, .T. ) ;
#190 = SECURITY_CLASSIFICATION ( '', '', #131 ) ;
#191 = CARTESIAN_POINT ( 'NONE',  ( -8.939921633775678800E-016, 20.00000000000000000, 10.00000000000000000 ) ) ;
#192 = VECTOR ( 'NONE', #287, 1000.000000000000000 ) ;
#193 = DIRECTION ( 'NONE',  ( -0.0000000000000000000, -0.0000000000000000000, -1.000000000000000000 ) ) ;
#194 = CARTESIAN_POINT ( 'NONE',  ( -20.00000000000000000, -2.449293598294706500E-015, -10.00000000000000000 ) ) ;
#195 = APPROVAL_PERSON_ORGANIZATION ( #71, #346, #302 ) ;
#196 = CARTESIAN_POINT ( 'NONE',  ( -8.939921633775678800E-016, 20.00000000000000000, 10.00000000000000000 ) ) ;
#197 = VECTOR ( 'NONE', #114, 1000.000000000000000 ) ;
#198 = CARTESIAN_POINT ( 'NONE',  ( -8.939921633775678800E-016, 20.00000000000000000, 10.00000000000000000 ) ) ;
#199 = PLANE ( 'NONE',  #43 ) ;
#200 = CC_DESIGN_DATE_AND_TIME_ASSIGNMENT ( #351, #243, ( #190 ) ) ;
#201 = APPROVAL_STATUS ( 'not_yet_approved' ) ;
#202 = LINE ( 'NONE', #225, #376 ) ;
#203 = ORIENTED_EDGE ( 'NONE', *, *, #304, .F. ) ;
#204 = CARTESIAN_POINT ( 'NONE',  ( -28.29019208361315000, 19.99988038006222300, 10.00000000000000000 ) ) ;
#205 = CARTESIAN_POINT ( 'NONE',  ( -1.263835496720068500E-015, 28.28000000000000100, -10.00000000000000000 ) ) ;
#206 = PLANE ( 'NONE',  #179 ) ;
#207 = VERTEX_POINT ( 'NONE', #63 ) ;
#208 = ORIENTED_EDGE ( 'NONE', *, *, #331, .T. ) ;
#209 = ADVANCED_BREP_SHAPE_REPRESENTATION ( 'Web Model 66633_66633', ( #361, #137, #211 ), #232 ) ;
#210 = ORIENTED_EDGE ( 'NONE', *, *, #274, .F. ) ;
#211 = AXIS2_PLACEMENT_3D ( 'NONE', #75, #38, #365 ) ;
#212 = LINE ( 'NONE', #292, #53 ) ;
#213 = ORIENTED_EDGE ( 'NONE', *, *, #251, .F. ) ;
#214 = EDGE_CURVE ( 'NONE', #135, #120, #326, .T. ) ;
#215 = CARTESIAN_POINT ( 'NONE',  ( -1.263835496720068500E-015, 28.28000000000000100, -10.00000000000000000 ) ) ;
#216 = DIRECTION ( 'NONE',  ( -0.0000000000000000000, -0.0000000000000000000, -1.000000000000000000 ) ) ;
#217 = PLANE ( 'NONE',  #277 ) ;
#218 = DIRECTION ( 'NONE',  ( -0.9239770013544401600, 0.3824480369515010900, 0.0000000000000000000 ) ) ;
#219 = CARTESIAN_POINT ( 'NONE',  ( 0.0000000000000000000, 0.0000000000000000000, 10.00000000000000000 ) ) ;
#220 = DIRECTION ( 'NONE',  ( -1.000000000000000000, 0.0000000000000000000, -0.0000000000000000000 ) ) ;
#221 = EDGE_LOOP ( 'NONE', ( #308, #35, #185, #162 ) ) ;
#222 = EDGE_LOOP ( 'NONE', ( #56, #312, #148, #210, #260 ) ) ;
#223 = DIRECTION ( 'NONE',  ( -1.000000000000000000, -4.469960816887839200E-017, 0.0000000000000000000 ) ) ;
#224 = COORDINATED_UNIVERSAL_TIME_OFFSET ( 5, 0, .BEHIND. ) ;
#225 = CARTESIAN_POINT ( 'NONE',  ( -20.00000000000000000, -2.449293598294706500E-015, 10.00000000000000000 ) ) ;
#226 = FACE_OUTER_BOUND ( 'NONE', #222, .T. ) ;
#227 = FACE_OUTER_BOUND ( 'NONE', #221, .T. ) ;
#228 = CARTESIAN_POINT ( 'NONE',  ( -8.939921633775678800E-016, 20.00000000000000000, -10.00000000000000000 ) ) ;
#229 = CC_DESIGN_PERSON_AND_ORGANIZATION_ASSIGNMENT ( #8, #6, ( #190 ) ) ;
#230 = APPLICATION_CONTEXT ( 'configuration controlled 3d designs of mechanical parts and assemblies' ) ;
#231 = ORIENTED_EDGE ( 'NONE', *, *, #170, .F. ) ;
#232 =( GEOMETRIC_REPRESENTATION_CONTEXT ( 3 ) GLOBAL_UNCERTAINTY_ASSIGNED_CONTEXT ( ( #280 ) ) GLOBAL_UNIT_ASSIGNED_CONTEXT ( ( #70, #298, #266 ) ) REPRESENTATION_CONTEXT ( 'NONE', 'WORKASPACE' ) );
#233 = ADVANCED_FACE ( 'NONE', ( #54 ), #258, .F. ) ;
#234 = CARTESIAN_POINT ( 'NONE',  ( -8.939921633775678800E-016, 20.00000000000000000, 10.00000000000000000 ) ) ;
#235 = APPROVAL_DATE_TIME ( #112, #346 ) ;
#236 = FACE_OUTER_BOUND ( 'NONE', #247, .T. ) ;
#237 = ADVANCED_FACE ( 'NONE', ( #177 ), #145, .F. ) ;
#238 = APPROVAL_STATUS ( 'not_yet_approved' ) ;
#239 = VERTEX_POINT ( 'NONE', #127 ) ;
#240 = VERTEX_POINT ( 'NONE', #228 ) ;
#241 = DATE_TIME_ROLE ( 'creation_date' ) ;
#242 = LOCAL_TIME ( 10, 17, 54.00000000000000000, #186 ) ;
#243 = DATE_TIME_ROLE ( 'classification_date' ) ;
#244 = FACE_OUTER_BOUND ( 'NONE', #48, .T. ) ;
#245 = CC_DESIGN_APPROVAL ( #346, ( #190 ) ) ;
#246 = CC_DESIGN_PERSON_AND_ORGANIZATION_ASSIGNMENT ( #338, #74, ( #323 ) ) ;
#247 = EDGE_LOOP ( 'NONE', ( #98, #372, #329, #42 ) ) ;
#248 = CC_DESIGN_PERSON_AND_ORGANIZATION_ASSIGNMENT ( #29, #4, ( #11 ) ) ;
#249 = PRODUCT_DEFINITION_FORMATION_WITH_SPECIFIED_SOURCE ( 'ANY', '', #323, .NOT_KNOWN. ) ;
#250 = DIRECTION ( 'NONE',  ( -0.3824480369515011500, -0.9239770013544402700, 0.0000000000000000000 ) ) ;
#251 = EDGE_CURVE ( 'NONE', #344, #135, #202, .T. ) ;
#252 = CARTESIAN_POINT ( 'NONE',  ( -20.00410207932363000, 28.28000000000000100, 10.00000000000000000 ) ) ;
#253 = ORIENTED_EDGE ( 'NONE', *, *, #336, .F. ) ;
#254 = DIRECTION ( 'NONE',  ( 0.9239770013544401600, -0.3824480369515010900, 0.0000000000000000000 ) ) ;
#255 = DIRECTION ( 'NONE',  ( 0.3829188029382516500, -0.9237820036980242100, -0.0000000000000000000 ) ) ;
#256 = AXIS2_PLACEMENT_3D ( 'NONE', #204, #327, #30 ) ;
#257 = EDGE_CURVE ( 'NONE', #21, #89, #176, .T. ) ;
#258 = PLANE ( 'NONE',  #317 ) ;
#259 = DIRECTION ( 'NONE',  ( -0.9239770013544401600, 0.3824480369515010900, -0.0000000000000000000 ) ) ;
#260 = ORIENTED_EDGE ( 'NONE', *, *, #303, .F. ) ;
#261 = ORIENTED_EDGE ( 'NONE', *, *, #375, .F. ) ;
#262 = ADVANCED_FACE ( 'NONE', ( #165 ), #199, .T. ) ;
#263 = CARTESIAN_POINT ( 'NONE',  ( 0.0000000000000000000, 0.0000000000000000000, 10.00000000000000000 ) ) ;
#264 = CC_DESIGN_APPROVAL ( #61, ( #11 ) ) ;
#265 = ADVANCED_FACE ( 'NONE', ( #236 ), #126, .T. ) ;
#266 =( NAMED_UNIT ( * ) SI_UNIT ( $, .STERADIAN. ) SOLID_ANGLE_UNIT ( ) );
#267 = CARTESIAN_POINT ( 'NONE',  ( -28.29019208361315000, 19.99988038006222300, 10.00000000000000000 ) ) ;
#268 = APPROVAL_PERSON_ORGANIZATION ( #136, #41, #366 ) ;
#269 = PERSON_AND_ORGANIZATION_ROLE ( 'creator' ) ;
#270 = VECTOR ( 'NONE', #193, 1000.000000000000000 ) ;
#271 = ORIENTED_EDGE ( 'NONE', *, *, #26, .F. ) ;
#272 = ORIENTED_EDGE ( 'NONE', *, *, #281, .F. ) ;
#273 = EDGE_CURVE ( 'NONE', #309, #345, #337, .T. ) ;
#274 = EDGE_CURVE ( 'NONE', #239, #207, #138, .T. ) ;
#275 = ORIENTED_EDGE ( 'NONE', *, *, #20, .T. ) ;
#276 = DIRECTION ( 'NONE',  ( -0.9239770013544401600, 0.3824480369515010900, 0.0000000000000000000 ) ) ;
#277 = AXIS2_PLACEMENT_3D ( 'NONE', #117, #119, #90 ) ;
#278 = LOCAL_TIME ( 10, 17, 54.00000000000000000, #125 ) ;
#279 = VECTOR ( 'NONE', #315, 1000.000000000000000 ) ;
#280 = UNCERTAINTY_MEASURE_WITH_UNIT (LENGTH_MEASURE( 1.000000000000000100E-005 ), #70, 'distance_accuracy_value', 'NONE');
#281 = EDGE_CURVE ( 'NONE', #135, #309, #212, .T. ) ;
#282 = CARTESIAN_POINT ( 'NONE',  ( -1.263835496720068500E-015, 28.28000000000000100, 10.00000000000000000 ) ) ;
#283 = ORIENTED_EDGE ( 'NONE', *, *, #336, .T. ) ;
#284 = SHAPE_DEFINITION_REPRESENTATION ( #62, #209 ) ;
#285 = LOCAL_TIME ( 10, 17, 54.00000000000000000, #110 ) ;
#286 = DIRECTION ( 'NONE',  ( 1.000000000000000000, 1.224646799147353200E-016, -0.0000000000000000000 ) ) ;
#287 = DIRECTION ( 'NONE',  ( -0.0000000000000000000, -0.0000000000000000000, -1.000000000000000000 ) ) ;
#288 = AXIS2_PLACEMENT_3D ( 'NONE', #16, #87, #161 ) ;
#289 = ORIENTED_EDGE ( 'NONE', *, *, #84, .T. ) ;
#290 = DIRECTION ( 'NONE',  ( 1.000000000000000000, 0.0000000000000000000, 0.0000000000000000000 ) ) ;
#291 = CARTESIAN_POINT ( 'NONE',  ( 0.0000000000000000000, 0.0000000000000000000, -10.00000000000000000 ) ) ;
#292 = CARTESIAN_POINT ( 'NONE',  ( 0.0000000000000000000, 0.0000000000000000000, 10.00000000000000000 ) ) ;
#293 = VECTOR ( 'NONE', #57, 1000.000000000000000 ) ;
#294 = ADVANCED_FACE ( 'NONE', ( #226 ), #121, .T. ) ;
#295 = EDGE_LOOP ( 'NONE', ( #106, #118, #373 ) ) ;
#296 = CARTESIAN_POINT ( 'NONE',  ( -20.00410207932363000, 28.28000000000000100, 10.00000000000000000 ) ) ;
#297 = CARTESIAN_POINT ( 'NONE',  ( 0.0000000000000000000, 0.0000000000000000000, -10.00000000000000000 ) ) ;
#298 =( NAMED_UNIT ( * ) PLANE_ANGLE_UNIT ( ) SI_UNIT ( $, .RADIAN. ) );
#299 = ORGANIZATION ( 'UNSPECIFIED', 'UNSPECIFIED', '' ) ;
#300 = ORIENTED_EDGE ( 'NONE', *, *, #304, .T. ) ;
#301 = DIRECTION ( 'NONE',  ( 4.466706924426336800E-017, -1.000000000000000000, 0.0000000000000000000 ) ) ;
#302 = APPROVAL_ROLE ( '' ) ;
#303 = EDGE_CURVE ( 'NONE', #240, #239, #73, .T. ) ;
#304 = EDGE_CURVE ( 'NONE', #89, #13, #27, .T. ) ;
#305 = VECTOR ( 'NONE', #356, 1000.000000000000100 ) ;
#306 = LINE ( 'NONE', #310, #334 ) ;
#307 = EDGE_LOOP ( 'NONE', ( #76, #7, #253, #386 ) ) ;
#308 = ORIENTED_EDGE ( 'NONE', *, *, #45, .T. ) ;
#309 = VERTEX_POINT ( 'NONE', #133 ) ;
#310 = CARTESIAN_POINT ( 'NONE',  ( -8.939921633775678800E-016, 20.00000000000000000, -10.00000000000000000 ) ) ;
#311 = VECTOR ( 'NONE', #255, 1000.000000000000200 ) ;
#312 = ORIENTED_EDGE ( 'NONE', *, *, #331, .F. ) ;
#313 = CARTESIAN_POINT ( 'NONE',  ( 0.0000000000000000000, 0.0000000000000000000, -10.00000000000000000 ) ) ;
#314 = DATE_AND_TIME ( #59, #285 ) ;
#315 = DIRECTION ( 'NONE',  ( -0.0000000000000000000, -0.0000000000000000000, -1.000000000000000000 ) ) ;
#316 = ADVANCED_FACE ( 'NONE', ( #108 ), #67, .F. ) ;
#317 = AXIS2_PLACEMENT_3D ( 'NONE', #95, #360, #58 ) ;
#318 = CLOSED_SHELL ( 'NONE', ( #72, #265, #2, #324, #262 ) ) ;
#319 = DIRECTION ( 'NONE',  ( 4.469960816887839200E-017, -1.000000000000000000, 0.0000000000000000000 ) ) ;
#320 = ORIENTED_EDGE ( 'NONE', *, *, #214, .T. ) ;
#321 = DIRECTION ( 'NONE',  ( -1.224646799147353200E-016, 1.000000000000000000, 0.0000000000000000000 ) ) ;
#322 = EDGE_CURVE ( 'NONE', #36, #15, #66, .T. ) ;
#323 = PRODUCT ( 'Web Model 66633_66633', 'Web Model 66633_66633', '', ( #34 ) ) ;
#324 = ADVANCED_FACE ( 'NONE', ( #51 ), #206, .F. ) ;
#325 = CARTESIAN_POINT ( 'NONE',  ( -1.263835496720068500E-015, 28.28000000000000100, 10.00000000000000000 ) ) ;
#326 = LINE ( 'NONE', #387, #192 ) ;
#327 = DIRECTION ( 'NONE',  ( 0.7068518973100746900, -0.7073615732206179900, 0.0000000000000000000 ) ) ;
#328 = ADVANCED_FACE ( 'NONE', ( #184 ), #99, .F. ) ;
#329 = ORIENTED_EDGE ( 'NONE', *, *, #14, .T. ) ;
#330 = CARTESIAN_POINT ( 'NONE',  ( -28.29019208361315000, 19.99988038006222300, 10.00000000000000000 ) ) ;
#331 = EDGE_CURVE ( 'NONE', #120, #340, #79, .T. ) ;
#332 = VECTOR ( 'NONE', #301, 1000.000000000000000 ) ;
#333 = APPROVAL_STATUS ( 'not_yet_approved' ) ;
#334 = VECTOR ( 'NONE', #158, 1000.000000000000000 ) ;
#335 = ORIENTED_EDGE ( 'NONE', *, *, #322, .F. ) ;
#336 = EDGE_CURVE ( 'NONE', #82, #344, #175, .T. ) ;
#337 = LINE ( 'NONE', #25, #83 ) ;
#338 = PERSON_AND_ORGANIZATION ( #363, #299 ) ;
#339 = VECTOR ( 'NONE', #216, 1000.000000000000000 ) ;
#340 = VERTEX_POINT ( 'NONE', #297 ) ;
#341 = ORIENTED_EDGE ( 'NONE', *, *, #60, .F. ) ;
#342 = COORDINATED_UNIVERSAL_TIME_OFFSET ( 5, 0, .BEHIND. ) ;
#343 = DATE_AND_TIME ( #123, #242 ) ;
#344 = VERTEX_POINT ( 'NONE', #267 ) ;
#345 = VERTEX_POINT ( 'NONE', #234 ) ;
#346 = APPROVAL ( #333, 'UNSPECIFIED' ) ;
#347 = VECTOR ( 'NONE', #150, 1000.000000000000000 ) ;
#348 = CARTESIAN_POINT ( 'NONE',  ( -28.29019208361315000, 19.99988038006222300, 10.00000000000000000 ) ) ;
#349 = LINE ( 'NONE', #382, #31 ) ;
#350 = LINE ( 'NONE', #282, #102 ) ;
#351 = DATE_AND_TIME ( #18, #140 ) ;
#352 = CARTESIAN_POINT ( 'NONE',  ( -20.00000000000000000, -2.449293598294706500E-015, 10.00000000000000000 ) ) ;
#353 = CARTESIAN_POINT ( 'NONE',  ( -20.00410207932363000, 28.28000000000000100, 10.00000000000000000 ) ) ;
#354 = LINE ( 'NONE', #219, #339 ) ;
#355 = EDGE_CURVE ( 'NONE', #21, #36, #44, .T. ) ;
#356 = DIRECTION ( 'NONE',  ( -0.7073615732206178800, -0.7068518973100745800, -0.0000000000000000000 ) ) ;
#357 = EDGE_LOOP ( 'NONE', ( #168, #367, #213, #40 ) ) ;
#358 = ORIENTED_EDGE ( 'NONE', *, *, #355, .F. ) ;
#359 = CLOSED_SHELL ( 'NONE', ( #128, #32, #328, #233, #316, #237, #294 ) ) ;
#360 = DIRECTION ( 'NONE',  ( 0.9237820036980242100, 0.3829188029382517000, -0.0000000000000000000 ) ) ;
#361 = MANIFOLD_SOLID_BREP ( 'Boss-Extrude1', #359 ) ;
#362 = CARTESIAN_POINT ( 'NONE',  ( -20.00410207932363000, 28.28000000000000100, -10.00000000000000000 ) ) ;
#363 = PERSON ( 'UNSPECIFIED', 'UNSPECIFIED', 'UNSPECIFIED', ('UNSPECIFIED'), ('UNSPECIFIED'), ('UNSPECIFIED') ) ;
#364 = DIRECTION ( 'NONE',  ( -0.7073615732206178800, -0.7068518973100745800, -0.0000000000000000000 ) ) ;
#365 = DIRECTION ( 'NONE',  ( 1.000000000000000000, 0.0000000000000000000, 0.0000000000000000000 ) ) ;
#366 = APPROVAL_ROLE ( '' ) ;
#367 = ORIENTED_EDGE ( 'NONE', *, *, #214, .F. ) ;
#368 = LINE ( 'NONE', #50, #279 ) ;
#369 = CC_DESIGN_SECURITY_CLASSIFICATION ( #190, ( #249 ) ) ;
#370 = LOCAL_TIME ( 10, 17, 54.00000000000000000, #342 ) ;
#371 = VECTOR ( 'NONE', #364, 1000.000000000000100 ) ;
#372 = ORIENTED_EDGE ( 'NONE', *, *, #84, .F. ) ;
#373 = ORIENTED_EDGE ( 'NONE', *, *, #113, .T. ) ;
#374 = DIRECTION ( 'NONE',  ( -0.0000000000000000000, -0.0000000000000000000, -1.000000000000000000 ) ) ;
#375 = EDGE_CURVE ( 'NONE', #15, #153, #172, .T. ) ;
#376 = VECTOR ( 'NONE', #173, 1000.000000000000200 ) ;
#377 = LINE ( 'NONE', #194, #311 ) ;
#378 = LINE ( 'NONE', #19, #197 ) ;
#379 = EDGE_LOOP ( 'NONE', ( #109, #189, #283, #64, #134 ) ) ;
#380 = CARTESIAN_POINT ( 'NONE',  ( -8.939921633775678800E-016, 20.00000000000000000, -10.00000000000000000 ) ) ;
#381 = CARTESIAN_POINT ( 'NONE',  ( -8.939921633775678800E-016, 20.00000000000000000, 10.00000000000000000 ) ) ;
#382 = CARTESIAN_POINT ( 'NONE',  ( -20.00410207932363000, 28.28000000000000100, 10.00000000000000000 ) ) ;
#383 = CALENDAR_DATE ( 2018, 4, 1 ) ;
#384 = PERSON_AND_ORGANIZATION ( #363, #299 ) ;
#385 = CARTESIAN_POINT ( 'NONE',  ( -20.00410207932363000, 28.28000000000000100, -10.00000000000000000 ) ) ;
#386 = ORIENTED_EDGE ( 'NONE', *, *, #122, .T. ) ;
#387 = CARTESIAN_POINT ( 'NONE',  ( -20.00000000000000000, -2.449293598294706500E-015, 10.00000000000000000 ) ) ;
ENDSEC;
END-ISO-10303-21;
