ISO-10303-21;
HEADER;
FILE_DESCRIPTION (( 'STEP AP203' ),
    '1' );
FILE_NAME ('Web Model 18300.step',
    '2021-06-28T20:41:40',
    ( '' ),
    ( '' ),
    'SwSTEP 2.0',
    'SolidWorks 2018',
    '' );
FILE_SCHEMA (( 'CONFIG_CONTROL_DESIGN' ));
ENDSEC;

DATA;
#1 = EDGE_LOOP ( 'NONE', ( #146, #140, #91, #133 ) ) ;
#2 = CC_DESIGN_APPROVAL ( #76, ( #39 ) ) ;
#3 = APPROVAL_ROLE ( '' ) ;
#4 = PERSON_AND_ORGANIZATION_ROLE ( 'design_supplier' ) ;
#5 = APPLICATION_PROTOCOL_DEFINITION ( 'international standard', 'config_control_design', 1994, #141 ) ;
#6 = PRODUCT_RELATED_PRODUCT_CATEGORY ( 'detail', '', ( #98 ) ) ;
#7 = PERSON_AND_ORGANIZATION ( #108, #160 ) ;
#8 = CARTESIAN_POINT ( 'NONE',  ( -0.8858267716535433989, 0.000000000000000000, 0.01574803149606299191 ) ) ;
#9 = APPROVAL_PERSON_ORGANIZATION ( #83, #61, #3 ) ;
#10 = DIRECTION ( 'NONE',  ( 0.000000000000000000, 0.000000000000000000, 1.000000000000000000 ) ) ;
#11 = EDGE_CURVE ( 'NONE', #121, #173, #95, .T. ) ;
#12 = CALENDAR_DATE ( 2021, 28, 6 ) ;
#13 =( NAMED_UNIT ( * ) PLANE_ANGLE_UNIT ( ) SI_UNIT ( $, .RADIAN. ) );
#14 = APPROVAL_PERSON_ORGANIZATION ( #149, #76, #143 ) ;
#15 = VECTOR ( 'NONE', #166, 39.37007874015748143 ) ;
#16 = AXIS2_PLACEMENT_3D ( 'NONE', #157, #79, #67 ) ;
#17 = AXIS2_PLACEMENT_3D ( 'NONE', #137, #71, #51 ) ;
#18 = CIRCLE ( 'NONE', #144, 0.8858267716535433989 ) ;
#19 = MANIFOLD_SOLID_BREP ( 'Boss-Extrude1', #131 ) ;
#20 = DIRECTION ( 'NONE',  ( 0.000000000000000000, 0.000000000000000000, 1.000000000000000000 ) ) ;
#21 = ORIENTED_EDGE ( 'NONE', *, *, #172, .F. ) ;
#22 = CARTESIAN_POINT ( 'NONE',  ( 0.8858267716535433989, 1.084824920504545324E-16, 0.000000000000000000 ) ) ;
#23 = CC_DESIGN_PERSON_AND_ORGANIZATION_ASSIGNMENT ( #126, #168, ( #43 ) ) ;
#24 = DIRECTION ( 'NONE',  ( 1.000000000000000000, 0.000000000000000000, 0.000000000000000000 ) ) ;
#25 = AXIS2_PLACEMENT_3D ( 'NONE', #165, #117, #113 ) ;
#26 = MECHANICAL_CONTEXT ( 'NONE', #125, 'mechanical' ) ;
#27 = PERSON_AND_ORGANIZATION_ROLE ( 'classification_officer' ) ;
#28 = LINE ( 'NONE', #8, #15 ) ;
#29 = ADVANCED_FACE ( 'NONE', ( #60 ), #154, .T. ) ;
#30 = ORIENTED_EDGE ( 'NONE', *, *, #100, .F. ) ;
#31 = ADVANCED_FACE ( 'NONE', ( #145 ), #102, .T. ) ;
#32 = LOCAL_TIME ( 16, 41, 40.00000000000000000, #104 ) ;
#33 = CC_DESIGN_PERSON_AND_ORGANIZATION_ASSIGNMENT ( #116, #4, ( #52 ) ) ;
#34 = CARTESIAN_POINT ( 'NONE',  ( 0.000000000000000000, 0.000000000000000000, 0.000000000000000000 ) ) ;
#35 = CC_DESIGN_PERSON_AND_ORGANIZATION_ASSIGNMENT ( #109, #27, ( #39 ) ) ;
#36 = EDGE_CURVE ( 'NONE', #121, #74, #28, .T. ) ;
#37 = CALENDAR_DATE ( 2021, 28, 6 ) ;
#38 = CALENDAR_DATE ( 2021, 28, 6 ) ;
#39 = SECURITY_CLASSIFICATION ( '', '', #105 ) ;
#40 = APPROVAL_ROLE ( '' ) ;
#41 = APPROVAL_STATUS ( 'not_yet_approved' ) ;
#42 = PERSON_AND_ORGANIZATION ( #108, #160 ) ;
#43 = PRODUCT_DEFINITION ( 'UNKNOWN', '', #52, #152 ) ;
#44 = APPROVAL_DATE_TIME ( #174, #76 ) ;
#45 = COORDINATED_UNIVERSAL_TIME_OFFSET ( 5, 0, .BEHIND. ) ;
#46 = DIRECTION ( 'NONE',  ( 1.000000000000000000, 0.000000000000000000, 0.000000000000000000 ) ) ;
#47 = AXIS2_PLACEMENT_3D ( 'NONE', #138, #20, #48 ) ;
#48 = DIRECTION ( 'NONE',  ( 1.000000000000000000, 0.000000000000000000, 0.000000000000000000 ) ) ;
#49 =( CONVERSION_BASED_UNIT ( 'INCH', #123 ) LENGTH_UNIT ( ) NAMED_UNIT ( #129 ) );
#50 = LOCAL_TIME ( 16, 41, 40.00000000000000000, #162 ) ;
#51 = DIRECTION ( 'NONE',  ( -1.000000000000000000, 0.000000000000000000, 0.000000000000000000 ) ) ;
#52 = PRODUCT_DEFINITION_FORMATION_WITH_SPECIFIED_SOURCE ( 'ANY', '', #98, .NOT_KNOWN. ) ;
#53 = LINE ( 'NONE', #139, #163 ) ;
#54 = PERSON_AND_ORGANIZATION ( #108, #160 ) ;
#55 = EDGE_LOOP ( 'NONE', ( #21, #88, #56, #130 ) ) ;
#56 = ORIENTED_EDGE ( 'NONE', *, *, #36, .T. ) ;
#57 = LOCAL_TIME ( 16, 41, 40.00000000000000000, #92 ) ;
#58 = CARTESIAN_POINT ( 'NONE',  ( -0.8858267716535433989, 0.000000000000000000, 0.000000000000000000 ) ) ;
#59 = CARTESIAN_POINT ( 'NONE',  ( 0.000000000000000000, 0.000000000000000000, 0.01574803149606299191 ) ) ;
#60 = FACE_OUTER_BOUND ( 'NONE', #55, .T. ) ;
#61 = APPROVAL ( #78, 'UNSPECIFIED' ) ;
#62 = DIRECTION ( 'NONE',  ( 1.000000000000000000, 0.000000000000000000, -0.000000000000000000 ) ) ;
#63 = PRODUCT_DEFINITION_SHAPE ( 'NONE', 'NONE',  #43 ) ;
#64 = DATE_AND_TIME ( #122, #32 ) ;
#65 = AXIS2_PLACEMENT_3D ( 'NONE', #59, #114, #62 ) ;
#66 = PERSON_AND_ORGANIZATION_ROLE ( 'creator' ) ;
#67 = DIRECTION ( 'NONE',  ( 1.000000000000000000, 0.000000000000000000, 0.000000000000000000 ) ) ;
#68 = CYLINDRICAL_SURFACE ( 'NONE', #25, 0.8858267716535433989 ) ;
#69 = ADVANCED_FACE ( 'NONE', ( #176 ), #115, .F. ) ;
#70 = DATE_AND_TIME ( #37, #57 ) ;
#71 = DIRECTION ( 'NONE',  ( -0.000000000000000000, -0.000000000000000000, -1.000000000000000000 ) ) ;
#72 = LOCAL_TIME ( 16, 41, 40.00000000000000000, #177 ) ;
#73 = DIRECTION ( 'NONE',  ( -0.000000000000000000, -0.000000000000000000, -1.000000000000000000 ) ) ;
#74 = VERTEX_POINT ( 'NONE', #58 ) ;
#75 = LOCAL_TIME ( 16, 41, 40.00000000000000000, #45 ) ;
#76 = APPROVAL ( #41, 'UNSPECIFIED' ) ;
#77 = PERSON_AND_ORGANIZATION_ROLE ( 'design_owner' ) ;
#78 = APPROVAL_STATUS ( 'not_yet_approved' ) ;
#79 = DIRECTION ( 'NONE',  ( 0.000000000000000000, 0.000000000000000000, 1.000000000000000000 ) ) ;
#80 = APPLICATION_PROTOCOL_DEFINITION ( 'international standard', 'config_control_design', 1994, #125 ) ;
#81 = APPROVAL_DATE_TIME ( #112, #61 ) ;
#82 = AXIS2_PLACEMENT_3D ( 'NONE', #178, #10, #24 ) ;
#83 = PERSON_AND_ORGANIZATION ( #108, #160 ) ;
#84 = FACE_OUTER_BOUND ( 'NONE', #1, .T. ) ;
#85 = ORIENTED_EDGE ( 'NONE', *, *, #135, .T. ) ;
#86 = CARTESIAN_POINT ( 'NONE',  ( 0.000000000000000000, 0.000000000000000000, 0.000000000000000000 ) ) ;
#87 = SHAPE_DEFINITION_REPRESENTATION ( #63, #171 ) ;
#88 = ORIENTED_EDGE ( 'NONE', *, *, #11, .F. ) ;
#89 =( LENGTH_UNIT ( ) NAMED_UNIT ( * ) SI_UNIT ( $, .METRE. ) );
#90 = DIRECTION ( 'NONE',  ( 0.000000000000000000, 0.000000000000000000, 1.000000000000000000 ) ) ;
#91 = ORIENTED_EDGE ( 'NONE', *, *, #93, .T. ) ;
#92 = COORDINATED_UNIVERSAL_TIME_OFFSET ( 5, 0, .BEHIND. ) ;
#93 = EDGE_CURVE ( 'NONE', #158, #74, #128, .T. ) ;
#94 = ORIENTED_EDGE ( 'NONE', *, *, #93, .F. ) ;
#95 = CIRCLE ( 'NONE', #47, 0.8858267716535433989 ) ;
#96 = DATE_AND_TIME ( #38, #72 ) ;
#97 = ORIENTED_EDGE ( 'NONE', *, *, #11, .T. ) ;
#98 = PRODUCT ( 'Web Model 18300', 'Web Model 18300', '', ( #26 ) ) ;
#99 = CC_DESIGN_PERSON_AND_ORGANIZATION_ASSIGNMENT ( #54, #66, ( #52 ) ) ;
#100 = EDGE_CURVE ( 'NONE', #74, #158, #103, .T. ) ;
#101 = UNCERTAINTY_MEASURE_WITH_UNIT (LENGTH_MEASURE( 1.000000000000000082E-05 ), #49, 'distance_accuracy_value', 'NONE');
#102 = PLANE ( 'NONE',  #65 ) ;
#103 = CIRCLE ( 'NONE', #82, 0.8858267716535433989 ) ;
#104 = COORDINATED_UNIVERSAL_TIME_OFFSET ( 5, 0, .BEHIND. ) ;
#105 = SECURITY_CLASSIFICATION_LEVEL ( 'unclassified' ) ;
#106 = ADVANCED_FACE ( 'NONE', ( #84 ), #68, .T. ) ;
#107 = AXIS2_PLACEMENT_3D ( 'NONE', #86, #134, #46 ) ;
#108 = PERSON ( 'UNSPECIFIED', 'UNSPECIFIED', 'UNSPECIFIED', ('UNSPECIFIED'), ('UNSPECIFIED'), ('UNSPECIFIED') ) ;
#109 = PERSON_AND_ORGANIZATION ( #108, #160 ) ;
#110 = APPROVAL_DATE_TIME ( #70, #175 ) ;
#111 = EDGE_LOOP ( 'NONE', ( #30, #94 ) ) ;
#112 = DATE_AND_TIME ( #155, #50 ) ;
#113 = DIRECTION ( 'NONE',  ( -1.000000000000000000, 0.000000000000000000, 0.000000000000000000 ) ) ;
#114 = DIRECTION ( 'NONE',  ( 0.000000000000000000, 0.000000000000000000, 1.000000000000000000 ) ) ;
#115 = PLANE ( 'NONE',  #159 ) ;
#116 = PERSON_AND_ORGANIZATION ( #108, #160 ) ;
#117 = DIRECTION ( 'NONE',  ( -0.000000000000000000, -0.000000000000000000, -1.000000000000000000 ) ) ;
#118 = CC_DESIGN_APPROVAL ( #175, ( #43 ) ) ;
#119 = DIRECTION ( 'NONE',  ( 1.000000000000000000, 0.000000000000000000, 0.000000000000000000 ) ) ;
#120 = CARTESIAN_POINT ( 'NONE',  ( 0.8858267716535433989, 1.084824920504545324E-16, 0.01574803149606299191 ) ) ;
#121 = VERTEX_POINT ( 'NONE', #167 ) ;
#122 = CALENDAR_DATE ( 2021, 28, 6 ) ;
#123 = LENGTH_MEASURE_WITH_UNIT ( LENGTH_MEASURE( 0.02539999999999999897 ), #89 );
#124 = EDGE_LOOP ( 'NONE', ( #97, #85 ) ) ;
#125 = APPLICATION_CONTEXT ( 'configuration controlled 3d designs of mechanical parts and assemblies' ) ;
#126 = PERSON_AND_ORGANIZATION ( #108, #160 ) ;
#127 = DATE_TIME_ROLE ( 'classification_date' ) ;
#128 = CIRCLE ( 'NONE', #107, 0.8858267716535433989 ) ;
#129 = DIMENSIONAL_EXPONENTS ( 1.000000000000000000, 0.000000000000000000, 0.000000000000000000, 0.000000000000000000, 0.000000000000000000, 0.000000000000000000, 0.000000000000000000 ) ;
#130 = ORIENTED_EDGE ( 'NONE', *, *, #100, .T. ) ;
#131 = CLOSED_SHELL ( 'NONE', ( #106, #29, #31, #69 ) ) ;
#132 = CC_DESIGN_APPROVAL ( #61, ( #52 ) ) ;
#133 = ORIENTED_EDGE ( 'NONE', *, *, #36, .F. ) ;
#134 = DIRECTION ( 'NONE',  ( 0.000000000000000000, 0.000000000000000000, 1.000000000000000000 ) ) ;
#135 = EDGE_CURVE ( 'NONE', #173, #121, #18, .T. ) ;
#136 = CC_DESIGN_DATE_AND_TIME_ASSIGNMENT ( #96, #127, ( #39 ) ) ;
#137 = CARTESIAN_POINT ( 'NONE',  ( 0.000000000000000000, 0.000000000000000000, 0.01574803149606299191 ) ) ;
#138 = CARTESIAN_POINT ( 'NONE',  ( 0.000000000000000000, 0.000000000000000000, 0.01574803149606299191 ) ) ;
#139 = CARTESIAN_POINT ( 'NONE',  ( 0.8858267716535433989, 1.084824920504545324E-16, 0.01574803149606299191 ) ) ;
#140 = ORIENTED_EDGE ( 'NONE', *, *, #172, .T. ) ;
#141 = APPLICATION_CONTEXT ( 'configuration controlled 3d designs of mechanical parts and assemblies' ) ;
#142 = DATE_TIME_ROLE ( 'creation_date' ) ;
#143 = APPROVAL_ROLE ( '' ) ;
#144 = AXIS2_PLACEMENT_3D ( 'NONE', #151, #90, #119 ) ;
#145 = FACE_OUTER_BOUND ( 'NONE', #124, .T. ) ;
#146 = ORIENTED_EDGE ( 'NONE', *, *, #135, .F. ) ;
#147 = DIRECTION ( 'NONE',  ( 0.000000000000000000, 0.000000000000000000, 1.000000000000000000 ) ) ;
#148 = DIRECTION ( 'NONE',  ( 1.000000000000000000, 0.000000000000000000, -0.000000000000000000 ) ) ;
#149 = PERSON_AND_ORGANIZATION ( #108, #160 ) ;
#150 = CC_DESIGN_DATE_AND_TIME_ASSIGNMENT ( #64, #142, ( #43 ) ) ;
#151 = CARTESIAN_POINT ( 'NONE',  ( 0.000000000000000000, 0.000000000000000000, 0.01574803149606299191 ) ) ;
#152 = DESIGN_CONTEXT ( 'detailed design', #141, 'design' ) ;
#153 =( GEOMETRIC_REPRESENTATION_CONTEXT ( 3 ) GLOBAL_UNCERTAINTY_ASSIGNED_CONTEXT ( ( #101 ) ) GLOBAL_UNIT_ASSIGNED_CONTEXT ( ( #49, #13, #169 ) ) REPRESENTATION_CONTEXT ( 'NONE', 'WORKASPACE' ) );
#154 = CYLINDRICAL_SURFACE ( 'NONE', #17, 0.8858267716535433989 ) ;
#155 = CALENDAR_DATE ( 2021, 28, 6 ) ;
#156 = APPROVAL_STATUS ( 'not_yet_approved' ) ;
#157 = CARTESIAN_POINT ( 'NONE',  ( 0.000000000000000000, 0.000000000000000000, 0.000000000000000000 ) ) ;
#158 = VERTEX_POINT ( 'NONE', #22 ) ;
#159 = AXIS2_PLACEMENT_3D ( 'NONE', #34, #147, #148 ) ;
#160 = ORGANIZATION ( 'UNSPECIFIED', 'UNSPECIFIED', '' ) ;
#161 = CC_DESIGN_SECURITY_CLASSIFICATION ( #39, ( #52 ) ) ;
#162 = COORDINATED_UNIVERSAL_TIME_OFFSET ( 5, 0, .BEHIND. ) ;
#163 = VECTOR ( 'NONE', #73, 39.37007874015748143 ) ;
#164 = CC_DESIGN_PERSON_AND_ORGANIZATION_ASSIGNMENT ( #42, #77, ( #98 ) ) ;
#165 = CARTESIAN_POINT ( 'NONE',  ( 0.000000000000000000, 0.000000000000000000, 0.01574803149606299191 ) ) ;
#166 = DIRECTION ( 'NONE',  ( -0.000000000000000000, -0.000000000000000000, -1.000000000000000000 ) ) ;
#167 = CARTESIAN_POINT ( 'NONE',  ( -0.8858267716535433989, 0.000000000000000000, 0.01574803149606299191 ) ) ;
#168 = PERSON_AND_ORGANIZATION_ROLE ( 'creator' ) ;
#169 =( NAMED_UNIT ( * ) SI_UNIT ( $, .STERADIAN. ) SOLID_ANGLE_UNIT ( ) );
#170 = APPROVAL_PERSON_ORGANIZATION ( #7, #175, #40 ) ;
#171 = ADVANCED_BREP_SHAPE_REPRESENTATION ( 'Web Model 18300', ( #19, #16 ), #153 ) ;
#172 = EDGE_CURVE ( 'NONE', #173, #158, #53, .T. ) ;
#173 = VERTEX_POINT ( 'NONE', #120 ) ;
#174 = DATE_AND_TIME ( #12, #75 ) ;
#175 = APPROVAL ( #156, 'UNSPECIFIED' ) ;
#176 = FACE_OUTER_BOUND ( 'NONE', #111, .T. ) ;
#177 = COORDINATED_UNIVERSAL_TIME_OFFSET ( 5, 0, .BEHIND. ) ;
#178 = CARTESIAN_POINT ( 'NONE',  ( 0.000000000000000000, 0.000000000000000000, 0.000000000000000000 ) ) ;
ENDSEC;
END-ISO-10303-21;
