ISO-10303-21;
HEADER;
FILE_DESCRIPTION (( 'STEP AP203' ),
    '1' );
FILE_NAME ('48922_Default.step',
    '2017-04-12T17:47:26',
    ( '' ),
    ( '' ),
    'SwSTEP 2.0',
    'SolidWorks 2016',
    '' );
FILE_SCHEMA (( 'CONFIG_CONTROL_DESIGN' ));
ENDSEC;

DATA;
#1 = CC_DESIGN_DATE_AND_TIME_ASSIGNMENT ( #42, #35, ( #116 ) ) ;
#2 = ADVANCED_FACE ( 'NONE', ( #12 ), #21, .T. ) ;
#3 = DIRECTION ( 'NONE',  ( 0.0000000000000000000, 0.0000000000000000000, 1.000000000000000000 ) ) ;
#4 = APPROVAL_DATE_TIME ( #114, #73 ) ;
#5 = PERSON_AND_ORGANIZATION ( #20, #33 ) ;
#6 =( GEOMETRIC_REPRESENTATION_CONTEXT ( 3 ) GLOBAL_UNCERTAINTY_ASSIGNED_CONTEXT ( ( #93 ) ) GLOBAL_UNIT_ASSIGNED_CONTEXT ( ( #154, #90, #26 ) ) REPRESENTATION_CONTEXT ( 'NONE', 'WORKASPACE' ) );
#7 = CALENDAR_DATE ( 2017, 12, 4 ) ;
#8 = SHAPE_DEFINITION_REPRESENTATION ( #56, #123 ) ;
#9 = ORIENTED_EDGE ( 'NONE', *, *, #36, .T. ) ;
#10 = APPROVAL_STATUS ( 'not_yet_approved' ) ;
#11 = PERSON_AND_ORGANIZATION ( #20, #33 ) ;
#12 = FACE_OUTER_BOUND ( 'NONE', #131, .T. ) ;
#13 = CALENDAR_DATE ( 2017, 12, 4 ) ;
#14 = ORIENTED_EDGE ( 'NONE', *, *, #36, .F. ) ;
#15 = CARTESIAN_POINT ( 'NONE',  ( 31.75000000000000000, 3.888253587292846500E-015, 1.000000000000000000 ) ) ;
#16 = CARTESIAN_POINT ( 'NONE',  ( -31.75000000000000000, 0.0000000000000000000, 1.000000000000000000 ) ) ;
#17 = DIRECTION ( 'NONE',  ( 0.0000000000000000000, 0.0000000000000000000, 1.000000000000000000 ) ) ;
#18 = VECTOR ( 'NONE', #84, 1000.000000000000000 ) ;
#19 = VERTEX_POINT ( 'NONE', #16 ) ;
#20 = PERSON ( 'UNSPECIFIED', 'UNSPECIFIED', 'UNSPECIFIED', ('UNSPECIFIED'), ('UNSPECIFIED'), ('UNSPECIFIED') ) ;
#21 = CYLINDRICAL_SURFACE ( 'NONE', #101, 31.75000000000000000 ) ;
#22 = APPLICATION_PROTOCOL_DEFINITION ( 'international standard', 'config_control_design', 1994, #46 ) ;
#23 = DIRECTION ( 'NONE',  ( -1.000000000000000000, 0.0000000000000000000, 0.0000000000000000000 ) ) ;
#24 = DATE_AND_TIME ( #65, #160 ) ;
#25 = PERSON_AND_ORGANIZATION_ROLE ( 'design_owner' ) ;
#26 =( NAMED_UNIT ( * ) SI_UNIT ( $, .STERADIAN. ) SOLID_ANGLE_UNIT ( ) );
#27 = VERTEX_POINT ( 'NONE', #15 ) ;
#28 = CC_DESIGN_APPROVAL ( #112, ( #116 ) ) ;
#29 = PERSON_AND_ORGANIZATION_ROLE ( 'classification_officer' ) ;
#30 = APPROVAL_STATUS ( 'not_yet_approved' ) ;
#31 = DIRECTION ( 'NONE',  ( 1.000000000000000000, 0.0000000000000000000, 0.0000000000000000000 ) ) ;
#32 = ORIENTED_EDGE ( 'NONE', *, *, #62, .F. ) ;
#33 = ORGANIZATION ( 'UNSPECIFIED', 'UNSPECIFIED', '' ) ;
#34 = ORIENTED_EDGE ( 'NONE', *, *, #165, .F. ) ;
#35 = DATE_TIME_ROLE ( 'creation_date' ) ;
#36 = EDGE_CURVE ( 'NONE', #27, #79, #52, .T. ) ;
#37 = EDGE_LOOP ( 'NONE', ( #34, #9, #43, #60 ) ) ;
#38 = EDGE_LOOP ( 'NONE', ( #83, #134 ) ) ;
#39 = CIRCLE ( 'NONE', #152, 31.75000000000000000 ) ;
#40 = PRODUCT_RELATED_PRODUCT_CATEGORY ( 'detail', '', ( #100 ) ) ;
#41 = DIRECTION ( 'NONE',  ( 1.000000000000000000, 0.0000000000000000000, 0.0000000000000000000 ) ) ;
#42 = DATE_AND_TIME ( #7, #144 ) ;
#43 = ORIENTED_EDGE ( 'NONE', *, *, #47, .T. ) ;
#44 = APPLICATION_PROTOCOL_DEFINITION ( 'international standard', 'config_control_design', 1994, #88 ) ;
#45 = APPROVAL_ROLE ( '' ) ;
#46 = APPLICATION_CONTEXT ( 'configuration controlled 3d designs of mechanical parts and assemblies' ) ;
#47 = EDGE_CURVE ( 'NONE', #79, #130, #171, .T. ) ;
#48 = CARTESIAN_POINT ( 'NONE',  ( 0.0000000000000000000, 0.0000000000000000000, 1.000000000000000000 ) ) ;
#49 = PERSON_AND_ORGANIZATION_ROLE ( 'creator' ) ;
#50 = CARTESIAN_POINT ( 'NONE',  ( 0.0000000000000000000, 0.0000000000000000000, -1.000000000000000000 ) ) ;
#51 = CC_DESIGN_PERSON_AND_ORGANIZATION_ASSIGNMENT ( #155, #29, ( #104 ) ) ;
#52 = LINE ( 'NONE', #82, #18 ) ;
#53 = CC_DESIGN_PERSON_AND_ORGANIZATION_ASSIGNMENT ( #5, #25, ( #100 ) ) ;
#54 = APPROVAL_ROLE ( '' ) ;
#55 = CARTESIAN_POINT ( 'NONE',  ( -31.75000000000000000, 0.0000000000000000000, -1.000000000000000000 ) ) ;
#56 = PRODUCT_DEFINITION_SHAPE ( 'NONE', 'NONE',  #116 ) ;
#57 = AXIS2_PLACEMENT_3D ( 'NONE', #129, #110, #23 ) ;
#58 = ORIENTED_EDGE ( 'NONE', *, *, #99, .T. ) ;
#59 = CC_DESIGN_SECURITY_CLASSIFICATION ( #104, ( #103 ) ) ;
#60 = ORIENTED_EDGE ( 'NONE', *, *, #99, .F. ) ;
#61 = DIRECTION ( 'NONE',  ( 1.000000000000000000, 0.0000000000000000000, -0.0000000000000000000 ) ) ;
#62 = EDGE_CURVE ( 'NONE', #19, #27, #39, .T. ) ;
#63 = LOCAL_TIME ( 13, 47, 26.00000000000000000, #145 ) ;
#64 = DATE_TIME_ROLE ( 'classification_date' ) ;
#65 = CALENDAR_DATE ( 2017, 12, 4 ) ;
#66 = CIRCLE ( 'NONE', #166, 31.75000000000000000 ) ;
#67 = DIRECTION ( 'NONE',  ( 1.000000000000000000, 0.0000000000000000000, 0.0000000000000000000 ) ) ;
#68 = CALENDAR_DATE ( 2017, 12, 4 ) ;
#69 = CLOSED_SHELL ( 'NONE', ( #85, #2, #138, #150 ) ) ;
#70 = AXIS2_PLACEMENT_3D ( 'NONE', #48, #107, #67 ) ;
#71 = APPROVAL_STATUS ( 'not_yet_approved' ) ;
#72 = SECURITY_CLASSIFICATION_LEVEL ( 'unclassified' ) ;
#73 = APPROVAL ( #30, 'UNSPECIFIED' ) ;
#74 = PERSON_AND_ORGANIZATION ( #20, #33 ) ;
#75 = CARTESIAN_POINT ( 'NONE',  ( 31.75000000000000000, 3.888253587292846500E-015, -1.000000000000000000 ) ) ;
#76 = AXIS2_PLACEMENT_3D ( 'NONE', #105, #175, #31 ) ;
#77 = COORDINATED_UNIVERSAL_TIME_OFFSET ( 5, 0, .BEHIND. ) ;
#78 = LINE ( 'NONE', #142, #162 ) ;
#79 = VERTEX_POINT ( 'NONE', #75 ) ;
#80 = DIRECTION ( 'NONE',  ( -1.000000000000000000, 0.0000000000000000000, 0.0000000000000000000 ) ) ;
#81 = PERSON_AND_ORGANIZATION_ROLE ( 'design_supplier' ) ;
#82 = CARTESIAN_POINT ( 'NONE',  ( 31.75000000000000000, 3.888253587292846500E-015, 1.000000000000000000 ) ) ;
#83 = ORIENTED_EDGE ( 'NONE', *, *, #62, .T. ) ;
#84 = DIRECTION ( 'NONE',  ( -0.0000000000000000000, -0.0000000000000000000, -1.000000000000000000 ) ) ;
#85 = ADVANCED_FACE ( 'NONE', ( #126 ), #132, .T. ) ;
#86 = APPROVAL_DATE_TIME ( #24, #112 ) ;
#87 = COORDINATED_UNIVERSAL_TIME_OFFSET ( 5, 0, .BEHIND. ) ;
#88 = APPLICATION_CONTEXT ( 'configuration controlled 3d designs of mechanical parts and assemblies' ) ;
#89 = PERSON_AND_ORGANIZATION ( #20, #33 ) ;
#90 =( NAMED_UNIT ( * ) PLANE_ANGLE_UNIT ( ) SI_UNIT ( $, .RADIAN. ) );
#91 = EDGE_LOOP ( 'NONE', ( #151, #170 ) ) ;
#92 = DIRECTION ( 'NONE',  ( 1.000000000000000000, 0.0000000000000000000, 0.0000000000000000000 ) ) ;
#93 = UNCERTAINTY_MEASURE_WITH_UNIT (LENGTH_MEASURE( 1.000000000000000100E-005 ), #154, 'distance_accuracy_value', 'NONE');
#94 = DIRECTION ( 'NONE',  ( 0.0000000000000000000, 0.0000000000000000000, 1.000000000000000000 ) ) ;
#95 = EDGE_CURVE ( 'NONE', #130, #79, #66, .T. ) ;
#96 = CARTESIAN_POINT ( 'NONE',  ( 0.0000000000000000000, 0.0000000000000000000, 1.000000000000000000 ) ) ;
#97 = CC_DESIGN_PERSON_AND_ORGANIZATION_ASSIGNMENT ( #143, #81, ( #103 ) ) ;
#98 = CALENDAR_DATE ( 2017, 12, 4 ) ;
#99 = EDGE_CURVE ( 'NONE', #19, #130, #78, .T. ) ;
#100 = PRODUCT ( '48922_Default', '48922_Default', '', ( #172 ) ) ;
#101 = AXIS2_PLACEMENT_3D ( 'NONE', #174, #113, #80 ) ;
#102 = APPROVAL_DATE_TIME ( #146, #109 ) ;
#103 = PRODUCT_DEFINITION_FORMATION_WITH_SPECIFIED_SOURCE ( 'ANY', '', #100, .NOT_KNOWN. ) ;
#104 = SECURITY_CLASSIFICATION ( '', '', #72 ) ;
#105 = CARTESIAN_POINT ( 'NONE',  ( 0.0000000000000000000, 0.0000000000000000000, -1.000000000000000000 ) ) ;
#106 = PERSON_AND_ORGANIZATION ( #20, #33 ) ;
#107 = DIRECTION ( 'NONE',  ( 0.0000000000000000000, 0.0000000000000000000, 1.000000000000000000 ) ) ;
#108 = APPROVAL_PERSON_ORGANIZATION ( #74, #73, #157 ) ;
#109 = APPROVAL ( #71, 'UNSPECIFIED' ) ;
#110 = DIRECTION ( 'NONE',  ( -0.0000000000000000000, -0.0000000000000000000, -1.000000000000000000 ) ) ;
#111 = LOCAL_TIME ( 13, 47, 26.00000000000000000, #164 ) ;
#112 = APPROVAL ( #10, 'UNSPECIFIED' ) ;
#113 = DIRECTION ( 'NONE',  ( -0.0000000000000000000, -0.0000000000000000000, -1.000000000000000000 ) ) ;
#114 = DATE_AND_TIME ( #98, #111 ) ;
#115 = CC_DESIGN_APPROVAL ( #109, ( #104 ) ) ;
#116 = PRODUCT_DEFINITION ( 'UNKNOWN', '', #103, #137 ) ;
#117 = COORDINATED_UNIVERSAL_TIME_OFFSET ( 5, 0, .BEHIND. ) ;
#118 = AXIS2_PLACEMENT_3D ( 'NONE', #96, #94, #156 ) ;
#119 = CARTESIAN_POINT ( 'NONE',  ( 0.0000000000000000000, 0.0000000000000000000, -1.000000000000000000 ) ) ;
#120 = AXIS2_PLACEMENT_3D ( 'NONE', #50, #17, #61 ) ;
#121 = PLANE ( 'NONE',  #118 ) ;
#122 = DIRECTION ( 'NONE',  ( 1.000000000000000000, 0.0000000000000000000, 0.0000000000000000000 ) ) ;
#123 = ADVANCED_BREP_SHAPE_REPRESENTATION ( '48922_Default', ( #141, #173 ), #6 ) ;
#124 = FACE_OUTER_BOUND ( 'NONE', #91, .T. ) ;
#125 = PERSON_AND_ORGANIZATION ( #20, #33 ) ;
#126 = FACE_OUTER_BOUND ( 'NONE', #37, .T. ) ;
#127 = CARTESIAN_POINT ( 'NONE',  ( 0.0000000000000000000, 0.0000000000000000000, 1.000000000000000000 ) ) ;
#128 = CC_DESIGN_PERSON_AND_ORGANIZATION_ASSIGNMENT ( #125, #49, ( #116 ) ) ;
#129 = CARTESIAN_POINT ( 'NONE',  ( 0.0000000000000000000, 0.0000000000000000000, 1.000000000000000000 ) ) ;
#130 = VERTEX_POINT ( 'NONE', #55 ) ;
#131 = EDGE_LOOP ( 'NONE', ( #14, #32, #58, #149 ) ) ;
#132 = CYLINDRICAL_SURFACE ( 'NONE', #57, 31.75000000000000000 ) ;
#133 = DIRECTION ( 'NONE',  ( -0.0000000000000000000, -0.0000000000000000000, -1.000000000000000000 ) ) ;
#134 = ORIENTED_EDGE ( 'NONE', *, *, #165, .T. ) ;
#135 = DIRECTION ( 'NONE',  ( 0.0000000000000000000, 0.0000000000000000000, 1.000000000000000000 ) ) ;
#136 = PLANE ( 'NONE',  #120 ) ;
#137 = DESIGN_CONTEXT ( 'detailed design', #88, 'design' ) ;
#138 = ADVANCED_FACE ( 'NONE', ( #169 ), #121, .T. ) ;
#139 = CC_DESIGN_DATE_AND_TIME_ASSIGNMENT ( #161, #64, ( #104 ) ) ;
#140 = APPROVAL_PERSON_ORGANIZATION ( #11, #109, #54 ) ;
#141 = MANIFOLD_SOLID_BREP ( 'Boss-Extrude1', #69 ) ;
#142 = CARTESIAN_POINT ( 'NONE',  ( -31.75000000000000000, 0.0000000000000000000, 1.000000000000000000 ) ) ;
#143 = PERSON_AND_ORGANIZATION ( #20, #33 ) ;
#144 = LOCAL_TIME ( 13, 47, 26.00000000000000000, #117 ) ;
#145 = COORDINATED_UNIVERSAL_TIME_OFFSET ( 5, 0, .BEHIND. ) ;
#146 = DATE_AND_TIME ( #68, #63 ) ;
#147 = CC_DESIGN_PERSON_AND_ORGANIZATION_ASSIGNMENT ( #89, #158, ( #103 ) ) ;
#148 = APPROVAL_PERSON_ORGANIZATION ( #106, #112, #45 ) ;
#149 = ORIENTED_EDGE ( 'NONE', *, *, #95, .T. ) ;
#150 = ADVANCED_FACE ( 'NONE', ( #124 ), #136, .F. ) ;
#151 = ORIENTED_EDGE ( 'NONE', *, *, #95, .F. ) ;
#152 = AXIS2_PLACEMENT_3D ( 'NONE', #127, #135, #92 ) ;
#153 = DIRECTION ( 'NONE',  ( 0.0000000000000000000, 0.0000000000000000000, 1.000000000000000000 ) ) ;
#154 =( LENGTH_UNIT ( ) NAMED_UNIT ( * ) SI_UNIT ( .MILLI., .METRE. ) );
#155 = PERSON_AND_ORGANIZATION ( #20, #33 ) ;
#156 = DIRECTION ( 'NONE',  ( 1.000000000000000000, 0.0000000000000000000, -0.0000000000000000000 ) ) ;
#157 = APPROVAL_ROLE ( '' ) ;
#158 = PERSON_AND_ORGANIZATION_ROLE ( 'creator' ) ;
#159 = CIRCLE ( 'NONE', #70, 31.75000000000000000 ) ;
#160 = LOCAL_TIME ( 13, 47, 26.00000000000000000, #87 ) ;
#161 = DATE_AND_TIME ( #13, #167 ) ;
#162 = VECTOR ( 'NONE', #133, 1000.000000000000000 ) ;
#163 = CC_DESIGN_APPROVAL ( #73, ( #103 ) ) ;
#164 = COORDINATED_UNIVERSAL_TIME_OFFSET ( 5, 0, .BEHIND. ) ;
#165 = EDGE_CURVE ( 'NONE', #27, #19, #159, .T. ) ;
#166 = AXIS2_PLACEMENT_3D ( 'NONE', #119, #153, #122 ) ;
#167 = LOCAL_TIME ( 13, 47, 26.00000000000000000, #77 ) ;
#168 = CARTESIAN_POINT ( 'NONE',  ( 0.0000000000000000000, 0.0000000000000000000, 0.0000000000000000000 ) ) ;
#169 = FACE_OUTER_BOUND ( 'NONE', #38, .T. ) ;
#170 = ORIENTED_EDGE ( 'NONE', *, *, #47, .F. ) ;
#171 = CIRCLE ( 'NONE', #76, 31.75000000000000000 ) ;
#172 = MECHANICAL_CONTEXT ( 'NONE', #46, 'mechanical' ) ;
#173 = AXIS2_PLACEMENT_3D ( 'NONE', #168, #3, #41 ) ;
#174 = CARTESIAN_POINT ( 'NONE',  ( 0.0000000000000000000, 0.0000000000000000000, 1.000000000000000000 ) ) ;
#175 = DIRECTION ( 'NONE',  ( 0.0000000000000000000, 0.0000000000000000000, 1.000000000000000000 ) ) ;
ENDSEC;
END-ISO-10303-21;
