ISO-10303-21;
HEADER;
FILE_DESCRIPTION (( 'STEP AP203' ),
    '1' );
FILE_NAME ('20092-E0W.STEP',
    '2015-07-10T15:23:33',
    ( 'Admin' ),
    ( '' ),
    'SwSTEP 2.0',
    'SolidWorks 2014',
    '' );
FILE_SCHEMA (( 'CONFIG_CONTROL_DESIGN' ));
ENDSEC;

DATA;
#1 = APPLICATION_PROTOCOL_DEFINITION ( 'international standard', 'config_control_design', 1994, #6 ) ;
#2 = SPHERICAL_SURFACE ( 'NONE', #33, 13.70100000000000100 ) ;
#3 = ADVANCED_FACE ( 'NONE', ( #126 ), #211, .T. ) ;
#4 = APPROVAL_DATE_TIME ( #34, #151 ) ;
#5 = EDGE_LOOP ( 'NONE', ( #85, #96, #166, #57 ) ) ;
#6 = APPLICATION_CONTEXT ( 'configuration controlled 3d designs of mechanical parts and assemblies' ) ;
#7 = ADVANCED_FACE ( 'NONE', ( #90 ), #154, .T. ) ;
#8 = APPROVAL_PERSON_ORGANIZATION ( #102, #151, #59 ) ;
#9 = CARTESIAN_POINT ( 'NONE',  ( 0.0000000000000000000, -2.989358863245930200E-015, 5.280000000000000200 ) ) ;
#10 = CC_DESIGN_PERSON_AND_ORGANIZATION_ASSIGNMENT ( #12, #229, ( #200 ) ) ;
#11 = PRODUCT_DEFINITION_SHAPE ( 'NONE', 'NONE',  #150 ) ;
#12 = PERSON_AND_ORGANIZATION ( #114, #147 ) ;
#13 = ORIENTED_EDGE ( 'NONE', *, *, #81, .T. ) ;
#14 = COORDINATED_UNIVERSAL_TIME_OFFSET ( 5, 0, .BEHIND. ) ;
#15 = LINE ( 'NONE', #235, #224 ) ;
#16 = DIRECTION ( 'NONE',  ( -0.0000000000000000000, 3.061515884555943100E-016, -1.000000000000000000 ) ) ;
#17 = PERSON_AND_ORGANIZATION_ROLE ( 'creator' ) ;
#18 = AXIS2_PLACEMENT_3D ( 'NONE', #191, #162, #136 ) ;
#19 = VERTEX_POINT ( 'NONE', #111 ) ;
#20 = FACE_OUTER_BOUND ( 'NONE', #5, .T. ) ;
#21 = CARTESIAN_POINT ( 'NONE',  ( 0.0000000000000000000, 1.878110996293713200E-015, -5.138578643762690100 ) ) ;
#22 = CALENDAR_DATE ( 2015, 10, 7 ) ;
#23 = ORIENTED_EDGE ( 'NONE', *, *, #27, .T. ) ;
#24 = DIRECTION ( 'NONE',  ( 0.0000000000000000000, -0.7071067811865391400, 0.7071067811865560100 ) ) ;
#25 = MECHANICAL_CONTEXT ( 'NONE', #6, 'mechanical' ) ;
#26 = VECTOR ( 'NONE', #119, 1000.000000000000000 ) ;
#27 = EDGE_CURVE ( 'NONE', #106, #225, #193, .T. ) ;
#28 = CARTESIAN_POINT ( 'NONE',  ( 0.0000000000000000000, 1.921407369147310700E-015, -5.280000000000003800 ) ) ;
#29 = CONICAL_SURFACE ( 'NONE', #242, 12.55857864376269200, 0.7853981633974360700 ) ;
#30 = CC_DESIGN_APPROVAL ( #151, ( #233 ) ) ;
#31 = CC_DESIGN_PERSON_AND_ORGANIZATION_ASSIGNMENT ( #45, #17, ( #150 ) ) ;
#32 = DIRECTION ( 'NONE',  ( -0.0000000000000000000, 3.061515884555943100E-016, -1.000000000000000000 ) ) ;
#33 = AXIS2_PLACEMENT_3D ( 'NONE', #222, #195, #163 ) ;
#34 = DATE_AND_TIME ( #22, #196 ) ;
#35 = VERTEX_POINT ( 'NONE', #244 ) ;
#36 = CARTESIAN_POINT ( 'NONE',  ( 0.0000000000000000000, 1.921407369147310700E-015, -5.280000000000003800 ) ) ;
#37 =( LENGTH_UNIT ( ) NAMED_UNIT ( * ) SI_UNIT ( .MILLI., .METRE. ) );
#38 = PERSON_AND_ORGANIZATION_ROLE ( 'creator' ) ;
#39 = CC_DESIGN_SECURITY_CLASSIFICATION ( #233, ( #200 ) ) ;
#40 = ORIENTED_EDGE ( 'NONE', *, *, #64, .F. ) ;
#41 = AXIS2_PLACEMENT_3D ( 'NONE', #246, #217, #185 ) ;
#42 = ORIENTED_EDGE ( 'NONE', *, *, #97, .F. ) ;
#43 = DIRECTION ( 'NONE',  ( -1.224646799147353200E-016, 1.000000000000000000, 0.0000000000000000000 ) ) ;
#44 = CARTESIAN_POINT ( 'NONE',  ( 0.0000000000000000000, 1.921407369147310300E-015, -5.280000000000002000 ) ) ;
#45 = PERSON_AND_ORGANIZATION ( #114, #147 ) ;
#46 = ORIENTED_EDGE ( 'NONE', *, *, #97, .T. ) ;
#47 = AXIS2_PLACEMENT_3D ( 'NONE', #137, #116, #94 ) ;
#48 = EDGE_CURVE ( 'NONE', #127, #19, #65, .T. ) ;
#49 = ADVANCED_FACE ( 'NONE', ( #241 ), #188, .T. ) ;
#50 = DIRECTION ( 'NONE',  ( 0.0000000000000000000, 0.0000000000000000000, 1.000000000000000000 ) ) ;
#51 = CIRCLE ( 'NONE', #41, 12.55857864376269200 ) ;
#52 = CC_DESIGN_PERSON_AND_ORGANIZATION_ASSIGNMENT ( #174, #143, ( #233 ) ) ;
#53 = CARTESIAN_POINT ( 'NONE',  ( 0.0000000000000000000, -12.55857864376269000, -5.280000000000006500 ) ) ;
#54 = CYLINDRICAL_SURFACE ( 'NONE', #47, 12.69999999999999900 ) ;
#55 = ORIENTED_EDGE ( 'NONE', *, *, #79, .T. ) ;
#56 = CARTESIAN_POINT ( 'NONE',  ( 1.555301434917138800E-015, -12.70000000000000100, -5.138578643762693700 ) ) ;
#57 = ORIENTED_EDGE ( 'NONE', *, *, #48, .F. ) ;
#58 = AXIS2_PLACEMENT_3D ( 'NONE', #179, #152, #124 ) ;
#59 = APPROVAL_ROLE ( '' ) ;
#60 = EDGE_LOOP ( 'NONE', ( #78, #70, #103, #74 ) ) ;
#61 = DIRECTION ( 'NONE',  ( 0.0000000000000000000, 1.000000000000000000, 2.731847993664262700E-016 ) ) ;
#62 = PERSON_AND_ORGANIZATION ( #114, #147 ) ;
#63 = ORIENTED_EDGE ( 'NONE', *, *, #64, .T. ) ;
#64 = EDGE_CURVE ( 'NONE', #106, #122, #98, .T. ) ;
#65 = CIRCLE ( 'NONE', #167, 12.70000000000000100 ) ;
#66 = DIRECTION ( 'NONE',  ( 1.000000000000000000, 1.224646799147353200E-016, 3.749275628560213600E-032 ) ) ;
#67 = LOCAL_TIME ( 11, 23, 33.00000000000000000, #183 ) ;
#68 = PLANE ( 'NONE',  #86 ) ;
#69 = APPROVAL_DATE_TIME ( #89, #194 ) ;
#70 = ORIENTED_EDGE ( 'NONE', *, *, #81, .F. ) ;
#71 = DIRECTION ( 'NONE',  ( -1.000000000000000000, 0.0000000000000000000, 0.0000000000000000000 ) ) ;
#72 = LINE ( 'NONE', #53, #76 ) ;
#73 = FACE_OUTER_BOUND ( 'NONE', #165, .T. ) ;
#74 = ORIENTED_EDGE ( 'NONE', *, *, #48, .T. ) ;
#75 = CARTESIAN_POINT ( 'NONE',  ( 1.555301434917138200E-015, -12.69999999999999800, -3.280241203868831800 ) ) ;
#76 = VECTOR ( 'NONE', #24, 1000.000000000000000 ) ;
#77 = APPROVAL_STATUS ( 'not_yet_approved' ) ;
#78 = ORIENTED_EDGE ( 'NONE', *, *, #189, .F. ) ;
#79 = EDGE_CURVE ( 'NONE', #122, #127, #15, .T. ) ;
#80 = MANIFOLD_SOLID_BREP ( '20092-001-1-solid1', #139 ) ;
#81 = EDGE_CURVE ( 'NONE', #176, #35, #132, .T. ) ;
#82 = DIRECTION ( 'NONE',  ( -0.0000000000000000000, 3.061515884555943100E-016, -1.000000000000000000 ) ) ;
#83 = LOCAL_TIME ( 11, 23, 33.00000000000000000, #245 ) ;
#84 = APPROVAL_DATE_TIME ( #105, #133 ) ;
#85 = ORIENTED_EDGE ( 'NONE', *, *, #79, .F. ) ;
#86 = AXIS2_PLACEMENT_3D ( 'NONE', #44, #16, #238 ) ;
#87 = CARTESIAN_POINT ( 'NONE',  ( 0.0000000000000000000, 3.662797604282730800E-016, -8.421000000000001200 ) ) ;
#88 = DIRECTION ( 'NONE',  ( 8.659560562354828100E-017, 0.7071067811865386900, 0.7071067811865564500 ) ) ;
#89 = DATE_AND_TIME ( #169, #236 ) ;
#90 = FACE_OUTER_BOUND ( 'NONE', #141, .T. ) ;
#91 = ORIENTED_EDGE ( 'NONE', *, *, #170, .T. ) ;
#92 = VECTOR ( 'NONE', #88, 1000.000000000000000 ) ;
#93 = CARTESIAN_POINT ( 'NONE',  ( 0.0000000000000000000, 3.662797604282730800E-016, -8.421000000000001200 ) ) ;
#94 = DIRECTION ( 'NONE',  ( 0.0000000000000000000, 1.000000000000000000, 2.731847993664263200E-016 ) ) ;
#95 = AXIS2_PLACEMENT_3D ( 'NONE', #197, #164, #138 ) ;
#96 = ORIENTED_EDGE ( 'NONE', *, *, #129, .T. ) ;
#97 = EDGE_CURVE ( 'NONE', #19, #127, #171, .T. ) ;
#98 = CIRCLE ( 'NONE', #209, 13.70100000000000100 ) ;
#99 = CC_DESIGN_DATE_AND_TIME_ASSIGNMENT ( #240, #208, ( #150 ) ) ;
#100 = CARTESIAN_POINT ( 'NONE',  ( 0.0000000000000000000, 1.309178037183704100E-015, -3.280241203868827300 ) ) ;
#101 = ADVANCED_BREP_SHAPE_REPRESENTATION ( '20092-E0W', ( #80, #95 ), #239 ) ;
#102 = PERSON_AND_ORGANIZATION ( #114, #147 ) ;
#103 = ORIENTED_EDGE ( 'NONE', *, *, #148, .T. ) ;
#104 = CARTESIAN_POINT ( 'NONE',  ( 0.0000000000000000000, 1.878110996293713200E-015, -5.138578643762690100 ) ) ;
#105 = DATE_AND_TIME ( #221, #173 ) ;
#106 = VERTEX_POINT ( 'NONE', #9 ) ;
#107 = DIRECTION ( 'NONE',  ( 0.0000000000000000000, 1.000000000000000000, 2.532258194258531200E-016 ) ) ;
#108 = CARTESIAN_POINT ( 'NONE',  ( 1.537982313792428900E-015, 12.55857864376269400, -5.280000000000000200 ) ) ;
#109 = APPROVAL_ROLE ( '' ) ;
#110 = ADVANCED_FACE ( 'NONE', ( #230 ), #29, .T. ) ;
#111 = CARTESIAN_POINT ( 'NONE',  ( 0.0000000000000000000, 12.70000000000000300, -5.138578643762686600 ) ) ;
#112 = EDGE_CURVE ( 'NONE', #225, #19, #172, .T. ) ;
#113 = CC_DESIGN_PERSON_AND_ORGANIZATION_ASSIGNMENT ( #247, #218, ( #140 ) ) ;
#114 = PERSON ( 'UNSPECIFIED', 'UNSPECIFIED', 'UNSPECIFIED', ('UNSPECIFIED'), ('UNSPECIFIED'), ('UNSPECIFIED') ) ;
#115 = CC_DESIGN_DATE_AND_TIME_ASSIGNMENT ( #144, #121, ( #233 ) ) ;
#116 = DIRECTION ( 'NONE',  ( -0.0000000000000000000, 3.061515884555943100E-016, -1.000000000000000000 ) ) ;
#117 = SHAPE_DEFINITION_REPRESENTATION ( #11, #101 ) ;
#118 = EDGE_LOOP ( 'NONE', ( #40, #23, #210 ) ) ;
#119 = DIRECTION ( 'NONE',  ( -0.0000000000000000000, 3.061515884555943100E-016, -1.000000000000000000 ) ) ;
#120 =( NAMED_UNIT ( * ) SI_UNIT ( $, .STERADIAN. ) SOLID_ANGLE_UNIT ( ) );
#121 = DATE_TIME_ROLE ( 'classification_date' ) ;
#122 = VERTEX_POINT ( 'NONE', #75 ) ;
#123 = DIRECTION ( 'NONE',  ( 0.0000000000000000000, 1.000000000000000000, 2.762611160361479200E-016 ) ) ;
#124 = DIRECTION ( 'NONE',  ( 0.0000000000000000000, 1.000000000000000000, 3.073328992872296900E-016 ) ) ;
#125 = APPROVAL_ROLE ( '' ) ;
#126 = FACE_OUTER_BOUND ( 'NONE', #60, .T. ) ;
#127 = VERTEX_POINT ( 'NONE', #56 ) ;
#128 = ORIENTED_EDGE ( 'NONE', *, *, #148, .F. ) ;
#129 = EDGE_CURVE ( 'NONE', #122, #225, #234, .T. ) ;
#130 = ADVANCED_FACE ( 'NONE', ( #248 ), #2, .T. ) ;
#131 = DIRECTION ( 'NONE',  ( 1.000000000000000000, 0.0000000000000000000, -0.0000000000000000000 ) ) ;
#132 = CIRCLE ( 'NONE', #175, 12.55857864376269200 ) ;
#133 = APPROVAL ( #153, 'UNSPECIFIED' ) ;
#134 = CARTESIAN_POINT ( 'NONE',  ( 0.0000000000000000000, -12.55857864376269000, -5.280000000000006500 ) ) ;
#135 = APPROVAL_STATUS ( 'not_yet_approved' ) ;
#136 = DIRECTION ( 'NONE',  ( 0.0000000000000000000, 1.000000000000000000, 2.731847993664263200E-016 ) ) ;
#137 = CARTESIAN_POINT ( 'NONE',  ( 0.0000000000000000000, 1.921407369147309900E-015, -5.280000000000000200 ) ) ;
#138 = DIRECTION ( 'NONE',  ( 1.000000000000000000, 0.0000000000000000000, 0.0000000000000000000 ) ) ;
#139 = CLOSED_SHELL ( 'NONE', ( #110, #7, #130, #212, #49, #146, #3 ) ) ;
#140 = PRODUCT ( '20092-E0W', '20092-E0W', '', ( #25 ) ) ;
#141 = EDGE_LOOP ( 'NONE', ( #199, #55, #42, #182 ) ) ;
#142 = CARTESIAN_POINT ( 'NONE',  ( 0.0000000000000000000, 12.70000000000000100, -5.279999999999996700 ) ) ;
#143 = PERSON_AND_ORGANIZATION_ROLE ( 'classification_officer' ) ;
#144 = DATE_AND_TIME ( #250, #83 ) ;
#145 = ORIENTED_EDGE ( 'NONE', *, *, #27, .F. ) ;
#146 = ADVANCED_FACE ( 'NONE', ( #20 ), #54, .T. ) ;
#147 = ORGANIZATION ( 'UNSPECIFIED', 'UNSPECIFIED', '' ) ;
#148 = EDGE_CURVE ( 'NONE', #176, #127, #72, .T. ) ;
#149 = DIRECTION ( 'NONE',  ( -0.0000000000000000000, 3.061515884555943100E-016, -1.000000000000000000 ) ) ;
#150 = PRODUCT_DEFINITION ( 'UNKNOWN', '', #200, #228 ) ;
#151 = APPROVAL ( #77, 'UNSPECIFIED' ) ;
#152 = DIRECTION ( 'NONE',  ( -0.0000000000000000000, 3.061515884555943100E-016, -1.000000000000000000 ) ) ;
#153 = APPROVAL_STATUS ( 'not_yet_approved' ) ;
#154 = CYLINDRICAL_SURFACE ( 'NONE', #18, 12.69999999999999900 ) ;
#155 = ORIENTED_EDGE ( 'NONE', *, *, #232, .F. ) ;
#156 = UNCERTAINTY_MEASURE_WITH_UNIT (LENGTH_MEASURE( 1.000000000000000100E-005 ), #37, 'distance_accuracy_value', 'NONE');
#157 = APPROVAL_PERSON_ORGANIZATION ( #160, #194, #109 ) ;
#158 = CARTESIAN_POINT ( 'NONE',  ( 0.0000000000000000000, 3.662797604282730800E-016, -8.421000000000001200 ) ) ;
#159 = LINE ( 'NONE', #108, #92 ) ;
#160 = PERSON_AND_ORGANIZATION ( #114, #147 ) ;
#161 = COORDINATED_UNIVERSAL_TIME_OFFSET ( 5, 0, .BEHIND. ) ;
#162 = DIRECTION ( 'NONE',  ( -0.0000000000000000000, 3.061515884555943100E-016, -1.000000000000000000 ) ) ;
#163 = DIRECTION ( 'NONE',  ( 0.0000000000000000000, 1.000000000000000000, 2.532258194258531200E-016 ) ) ;
#164 = DIRECTION ( 'NONE',  ( 0.0000000000000000000, 0.0000000000000000000, 1.000000000000000000 ) ) ;
#165 = EDGE_LOOP ( 'NONE', ( #13, #91 ) ) ;
#166 = ORIENTED_EDGE ( 'NONE', *, *, #112, .T. ) ;
#167 = AXIS2_PLACEMENT_3D ( 'NONE', #21, #214, #184 ) ;
#168 = ORIENTED_EDGE ( 'NONE', *, *, #189, .T. ) ;
#169 = CALENDAR_DATE ( 2015, 10, 7 ) ;
#170 = EDGE_CURVE ( 'NONE', #35, #176, #51, .T. ) ;
#171 = CIRCLE ( 'NONE', #198, 12.70000000000000100 ) ;
#172 = LINE ( 'NONE', #142, #26 ) ;
#173 = LOCAL_TIME ( 11, 23, 33.00000000000000000, #213 ) ;
#174 = PERSON_AND_ORGANIZATION ( #114, #147 ) ;
#175 = AXIS2_PLACEMENT_3D ( 'NONE', #178, #149, #123 ) ;
#176 = VERTEX_POINT ( 'NONE', #134 ) ;
#177 = CC_DESIGN_APPROVAL ( #194, ( #150 ) ) ;
#178 = CARTESIAN_POINT ( 'NONE',  ( 0.0000000000000000000, 1.921407369147310700E-015, -5.280000000000003800 ) ) ;
#179 = CARTESIAN_POINT ( 'NONE',  ( 0.0000000000000000000, 1.309178037183704100E-015, -3.280241203868827300 ) ) ;
#180 = PERSON_AND_ORGANIZATION ( #114, #147 ) ;
#181 = AXIS2_PLACEMENT_3D ( 'NONE', #158, #131, #107 ) ;
#182 = ORIENTED_EDGE ( 'NONE', *, *, #112, .F. ) ;
#183 = COORDINATED_UNIVERSAL_TIME_OFFSET ( 5, 0, .BEHIND. ) ;
#184 = DIRECTION ( 'NONE',  ( 0.0000000000000000000, 1.000000000000000000, 2.731847993664262700E-016 ) ) ;
#185 = DIRECTION ( 'NONE',  ( 0.0000000000000000000, 1.000000000000000000, 2.762611160361479200E-016 ) ) ;
#186 = AXIS2_PLACEMENT_3D ( 'NONE', #93, #71, #50 ) ;
#187 = APPLICATION_PROTOCOL_DEFINITION ( 'international standard', 'config_control_design', 1994, #190 ) ;
#188 = SPHERICAL_SURFACE ( 'NONE', #181, 13.70100000000000100 ) ;
#189 = EDGE_CURVE ( 'NONE', #35, #19, #159, .T. ) ;
#190 = APPLICATION_CONTEXT ( 'configuration controlled 3d designs of mechanical parts and assemblies' ) ;
#191 = CARTESIAN_POINT ( 'NONE',  ( 0.0000000000000000000, 1.921407369147309900E-015, -5.280000000000000200 ) ) ;
#192 = CALENDAR_DATE ( 2015, 10, 7 ) ;
#193 = CIRCLE ( 'NONE', #186, 13.70100000000000100 ) ;
#194 = APPROVAL ( #135, 'UNSPECIFIED' ) ;
#195 = DIRECTION ( 'NONE',  ( 1.000000000000000000, 0.0000000000000000000, -0.0000000000000000000 ) ) ;
#196 = LOCAL_TIME ( 11, 23, 33.00000000000000000, #14 ) ;
#197 = CARTESIAN_POINT ( 'NONE',  ( 0.0000000000000000000, 0.0000000000000000000, 0.0000000000000000000 ) ) ;
#198 = AXIS2_PLACEMENT_3D ( 'NONE', #104, #82, #61 ) ;
#199 = ORIENTED_EDGE ( 'NONE', *, *, #232, .T. ) ;
#200 = PRODUCT_DEFINITION_FORMATION_WITH_SPECIFIED_SOURCE ( 'ANY', '', #140, .NOT_KNOWN. ) ;
#201 = DIRECTION ( 'NONE',  ( 0.0000000000000000000, -1.000000000000000000, -2.762611160361479200E-016 ) ) ;
#202 =( NAMED_UNIT ( * ) PLANE_ANGLE_UNIT ( ) SI_UNIT ( $, .RADIAN. ) );
#203 = SECURITY_CLASSIFICATION_LEVEL ( 'unclassified' ) ;
#204 = EDGE_LOOP ( 'NONE', ( #145, #63, #155 ) ) ;
#205 = APPROVAL_PERSON_ORGANIZATION ( #180, #133, #125 ) ;
#206 = DIRECTION ( 'NONE',  ( -0.0000000000000000000, 3.061515884555943100E-016, -1.000000000000000000 ) ) ;
#207 = CARTESIAN_POINT ( 'NONE',  ( 0.0000000000000000000, 12.69999999999999800, -3.280241203868823800 ) ) ;
#208 = DATE_TIME_ROLE ( 'creation_date' ) ;
#209 = AXIS2_PLACEMENT_3D ( 'NONE', #87, #66, #43 ) ;
#210 = ORIENTED_EDGE ( 'NONE', *, *, #129, .F. ) ;
#211 = CONICAL_SURFACE ( 'NONE', #223, 12.55857864376269200, 0.7853981633974360700 ) ;
#212 = ADVANCED_FACE ( 'NONE', ( #73 ), #68, .T. ) ;
#213 = COORDINATED_UNIVERSAL_TIME_OFFSET ( 5, 0, .BEHIND. ) ;
#214 = DIRECTION ( 'NONE',  ( -0.0000000000000000000, 3.061515884555943100E-016, -1.000000000000000000 ) ) ;
#215 = CIRCLE ( 'NONE', #58, 12.69999999999999600 ) ;
#216 = CC_DESIGN_PERSON_AND_ORGANIZATION_ASSIGNMENT ( #62, #38, ( #200 ) ) ;
#217 = DIRECTION ( 'NONE',  ( -0.0000000000000000000, 3.061515884555943100E-016, -1.000000000000000000 ) ) ;
#218 = PERSON_AND_ORGANIZATION_ROLE ( 'design_owner' ) ;
#219 = AXIS2_PLACEMENT_3D ( 'NONE', #100, #32, #251 ) ;
#220 = DIRECTION ( 'NONE',  ( 0.0000000000000000000, -1.000000000000000000, -2.762611160361479200E-016 ) ) ;
#221 = CALENDAR_DATE ( 2015, 10, 7 ) ;
#222 = CARTESIAN_POINT ( 'NONE',  ( 0.0000000000000000000, 3.662797604282730800E-016, -8.421000000000001200 ) ) ;
#223 = AXIS2_PLACEMENT_3D ( 'NONE', #28, #249, #220 ) ;
#224 = VECTOR ( 'NONE', #206, 1000.000000000000000 ) ;
#225 = VERTEX_POINT ( 'NONE', #207 ) ;
#226 = CC_DESIGN_APPROVAL ( #133, ( #200 ) ) ;
#227 = DIRECTION ( 'NONE',  ( 0.0000000000000000000, -3.061515884555943100E-016, 1.000000000000000000 ) ) ;
#228 = DESIGN_CONTEXT ( 'detailed design', #190, 'design' ) ;
#229 = PERSON_AND_ORGANIZATION_ROLE ( 'design_supplier' ) ;
#230 = FACE_OUTER_BOUND ( 'NONE', #231, .T. ) ;
#231 = EDGE_LOOP ( 'NONE', ( #243, #168, #46, #128 ) ) ;
#232 = EDGE_CURVE ( 'NONE', #225, #122, #215, .T. ) ;
#233 = SECURITY_CLASSIFICATION ( '', '', #203 ) ;
#234 = CIRCLE ( 'NONE', #219, 12.69999999999999600 ) ;
#235 = CARTESIAN_POINT ( 'NONE',  ( 1.555301434917138400E-015, -12.69999999999999800, -5.280000000000003800 ) ) ;
#236 = LOCAL_TIME ( 11, 23, 33.00000000000000000, #161 ) ;
#237 = PRODUCT_RELATED_PRODUCT_CATEGORY ( 'detail', '', ( #140 ) ) ;
#238 = DIRECTION ( 'NONE',  ( 0.0000000000000000000, 1.000000000000000000, 3.061515884555943100E-016 ) ) ;
#239 =( GEOMETRIC_REPRESENTATION_CONTEXT ( 3 ) GLOBAL_UNCERTAINTY_ASSIGNED_CONTEXT ( ( #156 ) ) GLOBAL_UNIT_ASSIGNED_CONTEXT ( ( #37, #202, #120 ) ) REPRESENTATION_CONTEXT ( 'NONE', 'WORKASPACE' ) );
#240 = DATE_AND_TIME ( #192, #67 ) ;
#241 = FACE_OUTER_BOUND ( 'NONE', #118, .T. ) ;
#242 = AXIS2_PLACEMENT_3D ( 'NONE', #36, #227, #201 ) ;
#243 = ORIENTED_EDGE ( 'NONE', *, *, #170, .F. ) ;
#244 = CARTESIAN_POINT ( 'NONE',  ( 1.546641874354783800E-015, 12.55857864376269400, -5.280000000000000200 ) ) ;
#245 = COORDINATED_UNIVERSAL_TIME_OFFSET ( 5, 0, .BEHIND. ) ;
#246 = CARTESIAN_POINT ( 'NONE',  ( 0.0000000000000000000, 1.921407369147310700E-015, -5.280000000000003800 ) ) ;
#247 = PERSON_AND_ORGANIZATION ( #114, #147 ) ;
#248 = FACE_OUTER_BOUND ( 'NONE', #204, .T. ) ;
#249 = DIRECTION ( 'NONE',  ( 0.0000000000000000000, -3.061515884555943100E-016, 1.000000000000000000 ) ) ;
#250 = CALENDAR_DATE ( 2015, 10, 7 ) ;
#251 = DIRECTION ( 'NONE',  ( 0.0000000000000000000, 1.000000000000000000, 3.073328992872296900E-016 ) ) ;
ENDSEC;
END-ISO-10303-21;
