ISO-10303-21;
HEADER;
FILE_DESCRIPTION (( 'STEP AP203' ),
    '1' );
FILE_NAME ('Web Model 14965_18343.step',
    '2021-06-28T15:46:15',
    ( '' ),
    ( '' ),
    'SwSTEP 2.0',
    'SolidWorks 2018',
    '' );
FILE_SCHEMA (( 'CONFIG_CONTROL_DESIGN' ));
ENDSEC;

DATA;
#1 = PRODUCT_DEFINITION_SHAPE ( 'NONE', 'NONE',  #148 ) ;
#2 = DIRECTION ( 'NONE',  ( 1.000000000000000000, 0.000000000000000000, 0.000000000000000000 ) ) ;
#3 = CIRCLE ( 'NONE', #86, 20.00000000000000000 ) ;
#4 = PLANE ( 'NONE',  #131 ) ;
#5 = DIRECTION ( 'NONE',  ( 0.000000000000000000, 0.000000000000000000, -1.000000000000000000 ) ) ;
#6 = PERSON_AND_ORGANIZATION_ROLE ( 'classification_officer' ) ;
#7 = CC_DESIGN_APPROVAL ( #155, ( #148 ) ) ;
#8 = PERSON_AND_ORGANIZATION ( #44, #82 ) ;
#9 = ORIENTED_EDGE ( 'NONE', *, *, #100, .F. ) ;
#10 = EDGE_CURVE ( 'NONE', #83, #45, #26, .T. ) ;
#11 = EDGE_LOOP ( 'NONE', ( #170, #18 ) ) ;
#12 = EDGE_LOOP ( 'NONE', ( #58, #134, #157, #173 ) ) ;
#13 = CARTESIAN_POINT ( 'NONE',  ( 2.000000000000000000, 0.000000000000000000, 0.000000000000000000 ) ) ;
#14 = PLANE ( 'NONE',  #109 ) ;
#15 = APPLICATION_PROTOCOL_DEFINITION ( 'international standard', 'config_control_design', 1994, #28 ) ;
#16 = APPROVAL_PERSON_ORGANIZATION ( #161, #155, #142 ) ;
#17 = CC_DESIGN_APPROVAL ( #67, ( #41 ) ) ;
#18 = ORIENTED_EDGE ( 'NONE', *, *, #10, .T. ) ;
#19 = ADVANCED_BREP_SHAPE_REPRESENTATION ( 'Web Model 14965_18343', ( #85, #103 ), #122 ) ;
#20 = ADVANCED_FACE ( 'NONE', ( #144 ), #57, .T. ) ;
#21 = DATE_AND_TIME ( #117, #101 ) ;
#22 = VECTOR ( 'NONE', #49, 1000.000000000000000 ) ;
#23 = CC_DESIGN_PERSON_AND_ORGANIZATION_ASSIGNMENT ( #111, #53, ( #148 ) ) ;
#24 = AXIS2_PLACEMENT_3D ( 'NONE', #159, #29, #135 ) ;
#25 = LOCAL_TIME ( 11, 46, 15.00000000000000000, #108 ) ;
#26 = CIRCLE ( 'NONE', #174, 20.00000000000000000 ) ;
#27 = DIRECTION ( 'NONE',  ( 1.000000000000000000, 0.000000000000000000, 0.000000000000000000 ) ) ;
#28 = APPLICATION_CONTEXT ( 'configuration controlled 3d designs of mechanical parts and assemblies' ) ;
#29 = DIRECTION ( 'NONE',  ( -1.000000000000000000, -0.000000000000000000, -0.000000000000000000 ) ) ;
#30 =( NAMED_UNIT ( * ) SI_UNIT ( $, .STERADIAN. ) SOLID_ANGLE_UNIT ( ) );
#31 = CC_DESIGN_DATE_AND_TIME_ASSIGNMENT ( #156, #113, ( #148 ) ) ;
#32 = APPROVAL_PERSON_ORGANIZATION ( #8, #118, #50 ) ;
#33 = APPROVAL_DATE_TIME ( #36, #67 ) ;
#34 = CYLINDRICAL_SURFACE ( 'NONE', #24, 20.00000000000000000 ) ;
#35 = CARTESIAN_POINT ( 'NONE',  ( 2.000000000000000000, 0.000000000000000000, 0.000000000000000000 ) ) ;
#36 = DATE_AND_TIME ( #51, #56 ) ;
#37 = VERTEX_POINT ( 'NONE', #136 ) ;
#38 = CARTESIAN_POINT ( 'NONE',  ( -2.000000000000000000, 0.000000000000000000, 0.000000000000000000 ) ) ;
#39 = PERSON_AND_ORGANIZATION_ROLE ( 'design_owner' ) ;
#40 = ORIENTED_EDGE ( 'NONE', *, *, #90, .T. ) ;
#41 = SECURITY_CLASSIFICATION ( '', '', #110 ) ;
#42 = DIRECTION ( 'NONE',  ( -1.000000000000000000, -0.000000000000000000, -0.000000000000000000 ) ) ;
#43 = AXIS2_PLACEMENT_3D ( 'NONE', #89, #93, #65 ) ;
#44 = PERSON ( 'UNSPECIFIED', 'UNSPECIFIED', 'UNSPECIFIED', ('UNSPECIFIED'), ('UNSPECIFIED'), ('UNSPECIFIED') ) ;
#45 = VERTEX_POINT ( 'NONE', #78 ) ;
#46 = DIRECTION ( 'NONE',  ( 1.000000000000000000, 0.000000000000000000, 0.000000000000000000 ) ) ;
#47 = APPLICATION_PROTOCOL_DEFINITION ( 'international standard', 'config_control_design', 1994, #154 ) ;
#48 = EDGE_CURVE ( 'NONE', #37, #97, #137, .T. ) ;
#49 = DIRECTION ( 'NONE',  ( -1.000000000000000000, -0.000000000000000000, -0.000000000000000000 ) ) ;
#50 = APPROVAL_ROLE ( '' ) ;
#51 = CALENDAR_DATE ( 2021, 28, 6 ) ;
#52 = LINE ( 'NONE', #92, #22 ) ;
#53 = PERSON_AND_ORGANIZATION_ROLE ( 'creator' ) ;
#54 = DESIGN_CONTEXT ( 'detailed design', #154, 'design' ) ;
#55 = PERSON_AND_ORGANIZATION ( #44, #82 ) ;
#56 = LOCAL_TIME ( 11, 46, 15.00000000000000000, #95 ) ;
#57 = CYLINDRICAL_SURFACE ( 'NONE', #171, 20.00000000000000000 ) ;
#58 = ORIENTED_EDGE ( 'NONE', *, *, #10, .F. ) ;
#59 = DATE_AND_TIME ( #99, #143 ) ;
#60 = CARTESIAN_POINT ( 'NONE',  ( 2.000000000000000000, 0.000000000000000000, 0.000000000000000000 ) ) ;
#61 = DIRECTION ( 'NONE',  ( 1.000000000000000000, 0.000000000000000000, 0.000000000000000000 ) ) ;
#62 = PERSON_AND_ORGANIZATION ( #44, #82 ) ;
#63 = CARTESIAN_POINT ( 'NONE',  ( 2.000000000000000000, 2.449293598294706513E-15, -20.00000000000000000 ) ) ;
#64 = DIRECTION ( 'NONE',  ( 0.000000000000000000, 0.000000000000000000, -1.000000000000000000 ) ) ;
#65 = DIRECTION ( 'NONE',  ( 0.000000000000000000, 0.000000000000000000, -1.000000000000000000 ) ) ;
#66 = CARTESIAN_POINT ( 'NONE',  ( 2.000000000000000000, 0.000000000000000000, 20.00000000000000000 ) ) ;
#67 = APPROVAL ( #94, 'UNSPECIFIED' ) ;
#68 = PERSON_AND_ORGANIZATION ( #44, #82 ) ;
#69 = DATE_TIME_ROLE ( 'classification_date' ) ;
#70 = VECTOR ( 'NONE', #164, 1000.000000000000000 ) ;
#71 = EDGE_CURVE ( 'NONE', #97, #37, #3, .T. ) ;
#72 = PRODUCT_RELATED_PRODUCT_CATEGORY ( 'detail', '', ( #119 ) ) ;
#73 = PERSON_AND_ORGANIZATION ( #44, #82 ) ;
#74 = PRODUCT_DEFINITION_FORMATION_WITH_SPECIFIED_SOURCE ( 'ANY', '', #119, .NOT_KNOWN. ) ;
#75 = FACE_OUTER_BOUND ( 'NONE', #84, .T. ) ;
#76 = EDGE_LOOP ( 'NONE', ( #96, #9, #40, #125 ) ) ;
#77 = UNCERTAINTY_MEASURE_WITH_UNIT (LENGTH_MEASURE( 1.000000000000000082E-05 ), #139, 'distance_accuracy_value', 'NONE');
#78 = CARTESIAN_POINT ( 'NONE',  ( 2.000000000000000000, 0.000000000000000000, 20.00000000000000000 ) ) ;
#79 = CARTESIAN_POINT ( 'NONE',  ( 2.000000000000000000, 0.000000000000000000, 0.000000000000000000 ) ) ;
#80 = EDGE_CURVE ( 'NONE', #83, #97, #52, .T. ) ;
#81 = PERSON_AND_ORGANIZATION_ROLE ( 'creator' ) ;
#82 = ORGANIZATION ( 'UNSPECIFIED', 'UNSPECIFIED', '' ) ;
#83 = VERTEX_POINT ( 'NONE', #63 ) ;
#84 = EDGE_LOOP ( 'NONE', ( #130, #88 ) ) ;
#85 = MANIFOLD_SOLID_BREP ( 'Boss-Extrude1', #151 ) ;
#86 = AXIS2_PLACEMENT_3D ( 'NONE', #107, #124, #127 ) ;
#87 = COORDINATED_UNIVERSAL_TIME_OFFSET ( 5, 0, .BEHIND. ) ;
#88 = ORIENTED_EDGE ( 'NONE', *, *, #71, .F. ) ;
#89 = CARTESIAN_POINT ( 'NONE',  ( -2.000000000000000000, 0.000000000000000000, 0.000000000000000000 ) ) ;
#90 = EDGE_CURVE ( 'NONE', #45, #37, #112, .T. ) ;
#91 = SHAPE_DEFINITION_REPRESENTATION ( #1, #19 ) ;
#92 = CARTESIAN_POINT ( 'NONE',  ( 2.000000000000000000, 2.449293598294706513E-15, -20.00000000000000000 ) ) ;
#93 = DIRECTION ( 'NONE',  ( 1.000000000000000000, 0.000000000000000000, 0.000000000000000000 ) ) ;
#94 = APPROVAL_STATUS ( 'not_yet_approved' ) ;
#95 = COORDINATED_UNIVERSAL_TIME_OFFSET ( 5, 0, .BEHIND. ) ;
#96 = ORIENTED_EDGE ( 'NONE', *, *, #80, .F. ) ;
#97 = VERTEX_POINT ( 'NONE', #162 ) ;
#98 = AXIS2_PLACEMENT_3D ( 'NONE', #79, #160, #163 ) ;
#99 = CALENDAR_DATE ( 2021, 28, 6 ) ;
#100 = EDGE_CURVE ( 'NONE', #45, #83, #150, .T. ) ;
#101 = LOCAL_TIME ( 11, 46, 15.00000000000000000, #87 ) ;
#102 = FACE_OUTER_BOUND ( 'NONE', #76, .T. ) ;
#103 = AXIS2_PLACEMENT_3D ( 'NONE', #152, #138, #61 ) ;
#104 = DIRECTION ( 'NONE',  ( 0.000000000000000000, 0.000000000000000000, 1.000000000000000000 ) ) ;
#105 = APPROVAL_DATE_TIME ( #59, #155 ) ;
#106 = FACE_OUTER_BOUND ( 'NONE', #11, .T. ) ;
#107 = CARTESIAN_POINT ( 'NONE',  ( -2.000000000000000000, 0.000000000000000000, 0.000000000000000000 ) ) ;
#108 = COORDINATED_UNIVERSAL_TIME_OFFSET ( 5, 0, .BEHIND. ) ;
#109 = AXIS2_PLACEMENT_3D ( 'NONE', #38, #2, #5 ) ;
#110 = SECURITY_CLASSIFICATION_LEVEL ( 'unclassified' ) ;
#111 = PERSON_AND_ORGANIZATION ( #44, #82 ) ;
#112 = LINE ( 'NONE', #66, #70 ) ;
#113 = DATE_TIME_ROLE ( 'creation_date' ) ;
#114 = CC_DESIGN_APPROVAL ( #118, ( #74 ) ) ;
#115 = ADVANCED_FACE ( 'NONE', ( #75 ), #14, .F. ) ;
#116 = CC_DESIGN_PERSON_AND_ORGANIZATION_ASSIGNMENT ( #55, #39, ( #119 ) ) ;
#117 = CALENDAR_DATE ( 2021, 28, 6 ) ;
#118 = APPROVAL ( #129, 'UNSPECIFIED' ) ;
#119 = PRODUCT ( 'Web Model 14965_18343', 'Web Model 14965_18343', '', ( #123 ) ) ;
#120 = CALENDAR_DATE ( 2021, 28, 6 ) ;
#121 = DIRECTION ( 'NONE',  ( 0.000000000000000000, 0.000000000000000000, -1.000000000000000000 ) ) ;
#122 =( GEOMETRIC_REPRESENTATION_CONTEXT ( 3 ) GLOBAL_UNCERTAINTY_ASSIGNED_CONTEXT ( ( #77 ) ) GLOBAL_UNIT_ASSIGNED_CONTEXT ( ( #139, #126, #30 ) ) REPRESENTATION_CONTEXT ( 'NONE', 'WORKASPACE' ) );
#123 = MECHANICAL_CONTEXT ( 'NONE', #28, 'mechanical' ) ;
#124 = DIRECTION ( 'NONE',  ( 1.000000000000000000, 0.000000000000000000, 0.000000000000000000 ) ) ;
#125 = ORIENTED_EDGE ( 'NONE', *, *, #48, .T. ) ;
#126 =( NAMED_UNIT ( * ) PLANE_ANGLE_UNIT ( ) SI_UNIT ( $, .RADIAN. ) );
#127 = DIRECTION ( 'NONE',  ( 0.000000000000000000, 0.000000000000000000, -1.000000000000000000 ) ) ;
#128 = CC_DESIGN_PERSON_AND_ORGANIZATION_ASSIGNMENT ( #166, #6, ( #41 ) ) ;
#129 = APPROVAL_STATUS ( 'not_yet_approved' ) ;
#130 = ORIENTED_EDGE ( 'NONE', *, *, #48, .F. ) ;
#131 = AXIS2_PLACEMENT_3D ( 'NONE', #13, #27, #121 ) ;
#132 = CC_DESIGN_PERSON_AND_ORGANIZATION_ASSIGNMENT ( #62, #145, ( #74 ) ) ;
#133 = APPROVAL_DATE_TIME ( #147, #118 ) ;
#134 = ORIENTED_EDGE ( 'NONE', *, *, #80, .T. ) ;
#135 = DIRECTION ( 'NONE',  ( 0.000000000000000000, 0.000000000000000000, 1.000000000000000000 ) ) ;
#136 = CARTESIAN_POINT ( 'NONE',  ( -2.000000000000000000, 0.000000000000000000, 20.00000000000000000 ) ) ;
#137 = CIRCLE ( 'NONE', #43, 20.00000000000000000 ) ;
#138 = DIRECTION ( 'NONE',  ( 0.000000000000000000, 0.000000000000000000, 1.000000000000000000 ) ) ;
#139 =( LENGTH_UNIT ( ) NAMED_UNIT ( * ) SI_UNIT ( .MILLI., .METRE. ) );
#140 = ADVANCED_FACE ( 'NONE', ( #106 ), #4, .T. ) ;
#141 = APPROVAL_PERSON_ORGANIZATION ( #73, #67, #167 ) ;
#142 = APPROVAL_ROLE ( '' ) ;
#143 = LOCAL_TIME ( 11, 46, 15.00000000000000000, #175 ) ;
#144 = FACE_OUTER_BOUND ( 'NONE', #12, .T. ) ;
#145 = PERSON_AND_ORGANIZATION_ROLE ( 'design_supplier' ) ;
#146 = CC_DESIGN_SECURITY_CLASSIFICATION ( #41, ( #74 ) ) ;
#147 = DATE_AND_TIME ( #149, #158 ) ;
#148 = PRODUCT_DEFINITION ( 'UNKNOWN', '', #74, #54 ) ;
#149 = CALENDAR_DATE ( 2021, 28, 6 ) ;
#150 = CIRCLE ( 'NONE', #98, 20.00000000000000000 ) ;
#151 = CLOSED_SHELL ( 'NONE', ( #20, #168, #140, #115 ) ) ;
#152 = CARTESIAN_POINT ( 'NONE',  ( 0.000000000000000000, 0.000000000000000000, 0.000000000000000000 ) ) ;
#153 = CC_DESIGN_DATE_AND_TIME_ASSIGNMENT ( #21, #69, ( #41 ) ) ;
#154 = APPLICATION_CONTEXT ( 'configuration controlled 3d designs of mechanical parts and assemblies' ) ;
#155 = APPROVAL ( #165, 'UNSPECIFIED' ) ;
#156 = DATE_AND_TIME ( #120, #25 ) ;
#157 = ORIENTED_EDGE ( 'NONE', *, *, #71, .T. ) ;
#158 = LOCAL_TIME ( 11, 46, 15.00000000000000000, #169 ) ;
#159 = CARTESIAN_POINT ( 'NONE',  ( 2.000000000000000000, 0.000000000000000000, 0.000000000000000000 ) ) ;
#160 = DIRECTION ( 'NONE',  ( 1.000000000000000000, 0.000000000000000000, 0.000000000000000000 ) ) ;
#161 = PERSON_AND_ORGANIZATION ( #44, #82 ) ;
#162 = CARTESIAN_POINT ( 'NONE',  ( -2.000000000000000000, 2.449293598294706513E-15, -20.00000000000000000 ) ) ;
#163 = DIRECTION ( 'NONE',  ( 0.000000000000000000, 0.000000000000000000, -1.000000000000000000 ) ) ;
#164 = DIRECTION ( 'NONE',  ( -1.000000000000000000, -0.000000000000000000, -0.000000000000000000 ) ) ;
#165 = APPROVAL_STATUS ( 'not_yet_approved' ) ;
#166 = PERSON_AND_ORGANIZATION ( #44, #82 ) ;
#167 = APPROVAL_ROLE ( '' ) ;
#168 = ADVANCED_FACE ( 'NONE', ( #102 ), #34, .T. ) ;
#169 = COORDINATED_UNIVERSAL_TIME_OFFSET ( 5, 0, .BEHIND. ) ;
#170 = ORIENTED_EDGE ( 'NONE', *, *, #100, .T. ) ;
#171 = AXIS2_PLACEMENT_3D ( 'NONE', #60, #42, #104 ) ;
#172 = CC_DESIGN_PERSON_AND_ORGANIZATION_ASSIGNMENT ( #68, #81, ( #74 ) ) ;
#173 = ORIENTED_EDGE ( 'NONE', *, *, #90, .F. ) ;
#174 = AXIS2_PLACEMENT_3D ( 'NONE', #35, #46, #64 ) ;
#175 = COORDINATED_UNIVERSAL_TIME_OFFSET ( 5, 0, .BEHIND. ) ;
ENDSEC;
END-ISO-10303-21;
