ISO-10303-21;
HEADER;
FILE_DESCRIPTION (( 'STEP AP203' ),
    '1' );
FILE_NAME ('Web Model 37117MX_37117.step',
    '2017-10-30T12:45:34',
    ( '' ),
    ( '' ),
    'SwSTEP 2.0',
    'SolidWorks 2016',
    '' );
FILE_SCHEMA (( 'CONFIG_CONTROL_DESIGN' ));
ENDSEC;

DATA;
#1 = ADVANCED_FACE ( 'NONE', ( #117 ), #158, .F. ) ;
#2 = LINE ( 'NONE', #167, #4 ) ;
#3 = CC_DESIGN_APPROVAL ( #216, ( #133 ) ) ;
#4 = VECTOR ( 'NONE', #231, 1000.000000000000000 ) ;
#5 = CARTESIAN_POINT ( 'NONE',  ( -6.250000000000000000, -6.250000000000000000, 3.000000000000000000 ) ) ;
#6 = EDGE_CURVE ( 'NONE', #81, #21, #226, .T. ) ;
#7 = DIRECTION ( 'NONE',  ( 1.387778780781445700E-016, -1.000000000000000000, 0.0000000000000000000 ) ) ;
#8 = DIRECTION ( 'NONE',  ( -1.387778780781445700E-016, 1.000000000000000000, 0.0000000000000000000 ) ) ;
#9 = CALENDAR_DATE ( 2017, 30, 10 ) ;
#10 = APPROVAL_PERSON_ORGANIZATION ( #58, #216, #118 ) ;
#11 = CARTESIAN_POINT ( 'NONE',  ( -6.250000000000000000, 6.250000000000000000, 3.000000000000000000 ) ) ;
#12 = EDGE_CURVE ( 'NONE', #148, #81, #15, .T. ) ;
#13 = VECTOR ( 'NONE', #82, 1000.000000000000000 ) ;
#14 = APPROVAL_ROLE ( '' ) ;
#15 = LINE ( 'NONE', #97, #120 ) ;
#16 = MECHANICAL_CONTEXT ( 'NONE', #185, 'mechanical' ) ;
#17 = PRODUCT_RELATED_PRODUCT_CATEGORY ( 'detail', '', ( #170 ) ) ;
#18 =( LENGTH_UNIT ( ) NAMED_UNIT ( * ) SI_UNIT ( .MILLI., .METRE. ) );
#19 = APPROVAL_STATUS ( 'not_yet_approved' ) ;
#20 = ORIENTED_EDGE ( 'NONE', *, *, #53, .F. ) ;
#21 = VERTEX_POINT ( 'NONE', #26 ) ;
#22 = CC_DESIGN_PERSON_AND_ORGANIZATION_ASSIGNMENT ( #175, #229, ( #170 ) ) ;
#23 = LINE ( 'NONE', #233, #143 ) ;
#24 = ORIENTED_EDGE ( 'NONE', *, *, #182, .F. ) ;
#25 = PRODUCT_DEFINITION ( 'UNKNOWN', '', #133, #91 ) ;
#26 = CARTESIAN_POINT ( 'NONE',  ( -6.250000000000000000, 6.250000000000000000, -3.000000000000000000 ) ) ;
#27 = ORIENTED_EDGE ( 'NONE', *, *, #12, .T. ) ;
#28 = CARTESIAN_POINT ( 'NONE',  ( 6.249999999999998200, 6.250000000000001800, -3.000000000000000000 ) ) ;
#29 = PLANE ( 'NONE',  #65 ) ;
#30 = CARTESIAN_POINT ( 'NONE',  ( 6.249999999999998200, 6.250000000000001800, 3.000000000000000000 ) ) ;
#31 = DIRECTION ( 'NONE',  ( 0.0000000000000000000, -0.0000000000000000000, 1.000000000000000000 ) ) ;
#32 = ORGANIZATION ( 'UNSPECIFIED', 'UNSPECIFIED', '' ) ;
#33 = VERTEX_POINT ( 'NONE', #28 ) ;
#34 = DATE_TIME_ROLE ( 'classification_date' ) ;
#35 = VERTEX_POINT ( 'NONE', #64 ) ;
#36 = APPLICATION_CONTEXT ( 'configuration controlled 3d designs of mechanical parts and assemblies' ) ;
#37 = LOCAL_TIME ( 8, 45, 34.00000000000000000, #179 ) ;
#38 = SHAPE_DEFINITION_REPRESENTATION ( #146, #119 ) ;
#39 = CC_DESIGN_PERSON_AND_ORGANIZATION_ASSIGNMENT ( #163, #183, ( #133 ) ) ;
#40 = ADVANCED_FACE ( 'NONE', ( #193 ), #196, .F. ) ;
#41 = VECTOR ( 'NONE', #54, 1000.000000000000000 ) ;
#42 = ORIENTED_EDGE ( 'NONE', *, *, #6, .T. ) ;
#43 = EDGE_CURVE ( 'NONE', #148, #33, #172, .T. ) ;
#44 = CALENDAR_DATE ( 2017, 30, 10 ) ;
#45 = ORIENTED_EDGE ( 'NONE', *, *, #71, .T. ) ;
#46 = CARTESIAN_POINT ( 'NONE',  ( 6.249999999999998200, -6.249999999999998200, 3.000000000000000000 ) ) ;
#47 = PLANE ( 'NONE',  #150 ) ;
#48 = DATE_AND_TIME ( #94, #37 ) ;
#49 = DIRECTION ( 'NONE',  ( -1.000000000000000000, -1.387778780781445900E-016, 0.0000000000000000000 ) ) ;
#50 = CARTESIAN_POINT ( 'NONE',  ( 6.249999999999998200, 6.250000000000001800, 3.000000000000000000 ) ) ;
#51 = APPROVAL_STATUS ( 'not_yet_approved' ) ;
#52 =( NAMED_UNIT ( * ) SI_UNIT ( $, .STERADIAN. ) SOLID_ANGLE_UNIT ( ) );
#53 = EDGE_CURVE ( 'NONE', #35, #33, #210, .T. ) ;
#54 = DIRECTION ( 'NONE',  ( 1.000000000000000000, 1.387778780781445900E-016, -0.0000000000000000000 ) ) ;
#55 = LINE ( 'NONE', #67, #136 ) ;
#56 = ORIENTED_EDGE ( 'NONE', *, *, #43, .F. ) ;
#57 = AXIS2_PLACEMENT_3D ( 'NONE', #161, #31, #160 ) ;
#58 = PERSON_AND_ORGANIZATION ( #205, #32 ) ;
#59 = COORDINATED_UNIVERSAL_TIME_OFFSET ( 5, 0, .BEHIND. ) ;
#60 = LINE ( 'NONE', #111, #13 ) ;
#61 = CC_DESIGN_PERSON_AND_ORGANIZATION_ASSIGNMENT ( #153, #104, ( #127 ) ) ;
#62 = DIRECTION ( 'NONE',  ( -0.0000000000000000000, -0.0000000000000000000, -1.000000000000000000 ) ) ;
#63 = DIRECTION ( 'NONE',  ( 0.0000000000000000000, -0.0000000000000000000, 1.000000000000000000 ) ) ;
#64 = CARTESIAN_POINT ( 'NONE',  ( 6.249999999999998200, -6.249999999999998200, -3.000000000000000000 ) ) ;
#65 = AXIS2_PLACEMENT_3D ( 'NONE', #46, #8, #217 ) ;
#66 = CARTESIAN_POINT ( 'NONE',  ( 6.249999999999998200, -6.249999999999998200, 3.000000000000000000 ) ) ;
#67 = CARTESIAN_POINT ( 'NONE',  ( -6.250000000000000000, -6.250000000000000000, -3.000000000000000000 ) ) ;
#68 = ORIENTED_EDGE ( 'NONE', *, *, #6, .F. ) ;
#69 = APPROVAL_ROLE ( '' ) ;
#70 = DIRECTION ( 'NONE',  ( 0.0000000000000000000, 0.0000000000000000000, 1.000000000000000000 ) ) ;
#71 = EDGE_CURVE ( 'NONE', #141, #112, #60, .T. ) ;
#72 = ORIENTED_EDGE ( 'NONE', *, *, #232, .T. ) ;
#73 = LINE ( 'NONE', #84, #235 ) ;
#74 = VECTOR ( 'NONE', #62, 1000.000000000000000 ) ;
#75 = ADVANCED_FACE ( 'NONE', ( #139 ), #47, .F. ) ;
#76 = ADVANCED_FACE ( 'NONE', ( #79 ), #98, .T. ) ;
#77 = EDGE_LOOP ( 'NONE', ( #194, #68, #152, #219 ) ) ;
#78 = CC_DESIGN_PERSON_AND_ORGANIZATION_ASSIGNMENT ( #124, #184, ( #25 ) ) ;
#79 = FACE_OUTER_BOUND ( 'NONE', #125, .T. ) ;
#80 = DIRECTION ( 'NONE',  ( 1.000000000000000000, 0.0000000000000000000, 0.0000000000000000000 ) ) ;
#81 = VERTEX_POINT ( 'NONE', #220 ) ;
#82 = DIRECTION ( 'NONE',  ( -0.0000000000000000000, -0.0000000000000000000, -1.000000000000000000 ) ) ;
#83 = DIRECTION ( 'NONE',  ( 1.000000000000000000, 0.0000000000000000000, -0.0000000000000000000 ) ) ;
#84 = CARTESIAN_POINT ( 'NONE',  ( 6.249999999999998200, -6.249999999999998200, -3.000000000000000000 ) ) ;
#85 = CALENDAR_DATE ( 2017, 30, 10 ) ;
#86 = SECURITY_CLASSIFICATION_LEVEL ( 'unclassified' ) ;
#87 = CALENDAR_DATE ( 2017, 30, 10 ) ;
#88 =( NAMED_UNIT ( * ) PLANE_ANGLE_UNIT ( ) SI_UNIT ( $, .RADIAN. ) );
#89 = VECTOR ( 'NONE', #49, 1000.000000000000000 ) ;
#90 = CC_DESIGN_APPROVAL ( #121, ( #127 ) ) ;
#91 = DESIGN_CONTEXT ( 'detailed design', #36, 'design' ) ;
#92 = VECTOR ( 'NONE', #145, 1000.000000000000000 ) ;
#93 = ORIENTED_EDGE ( 'NONE', *, *, #71, .F. ) ;
#94 = CALENDAR_DATE ( 2017, 30, 10 ) ;
#95 = ADVANCED_FACE ( 'NONE', ( #140 ), #164, .F. ) ;
#96 = EDGE_LOOP ( 'NONE', ( #230, #93, #176, #42 ) ) ;
#97 = CARTESIAN_POINT ( 'NONE',  ( 6.249999999999998200, 6.250000000000001800, 3.000000000000000000 ) ) ;
#98 = PLANE ( 'NONE',  #57 ) ;
#99 = CARTESIAN_POINT ( 'NONE',  ( 6.249999999999998200, 6.250000000000001800, -3.000000000000000000 ) ) ;
#100 = DIRECTION ( 'NONE',  ( 0.0000000000000000000, 0.0000000000000000000, 1.000000000000000000 ) ) ;
#101 = DATE_AND_TIME ( #44, #157 ) ;
#102 = ORIENTED_EDGE ( 'NONE', *, *, #190, .F. ) ;
#103 = DIRECTION ( 'NONE',  ( -0.0000000000000000000, -1.000000000000000000, -0.0000000000000000000 ) ) ;
#104 = PERSON_AND_ORGANIZATION_ROLE ( 'classification_officer' ) ;
#105 = LOCAL_TIME ( 8, 45, 34.00000000000000000, #191 ) ;
#106 = FACE_OUTER_BOUND ( 'NONE', #214, .T. ) ;
#107 = VERTEX_POINT ( 'NONE', #66 ) ;
#108 = AXIS2_PLACEMENT_3D ( 'NONE', #126, #63, #83 ) ;
#109 = VECTOR ( 'NONE', #103, 1000.000000000000000 ) ;
#110 = DIRECTION ( 'NONE',  ( -1.000000000000000000, -1.387778780781445900E-016, 0.0000000000000000000 ) ) ;
#111 = CARTESIAN_POINT ( 'NONE',  ( -6.250000000000000000, -6.250000000000000000, 3.000000000000000000 ) ) ;
#112 = VERTEX_POINT ( 'NONE', #113 ) ;
#113 = CARTESIAN_POINT ( 'NONE',  ( -6.250000000000000000, -6.250000000000000000, -3.000000000000000000 ) ) ;
#114 = DATE_AND_TIME ( #87, #198 ) ;
#115 = CARTESIAN_POINT ( 'NONE',  ( 6.249999999999998200, -6.249999999999998200, 3.000000000000000000 ) ) ;
#116 = LINE ( 'NONE', #99, #89 ) ;
#117 = FACE_OUTER_BOUND ( 'NONE', #96, .T. ) ;
#118 = APPROVAL_ROLE ( '' ) ;
#119 = ADVANCED_BREP_SHAPE_REPRESENTATION ( 'Web Model 37117MX_37117', ( #178, #202 ), #187 ) ;
#120 = VECTOR ( 'NONE', #110, 1000.000000000000000 ) ;
#121 = APPROVAL ( #168, 'UNSPECIFIED' ) ;
#122 = ORIENTED_EDGE ( 'NONE', *, *, #159, .F. ) ;
#123 = AXIS2_PLACEMENT_3D ( 'NONE', #115, #195, #100 ) ;
#124 = PERSON_AND_ORGANIZATION ( #205, #32 ) ;
#125 = EDGE_LOOP ( 'NONE', ( #137, #130, #72, #27 ) ) ;
#126 = CARTESIAN_POINT ( 'NONE',  ( 0.0000000000000000000, 0.0000000000000000000, -3.000000000000000000 ) ) ;
#127 = SECURITY_CLASSIFICATION ( '', '', #86 ) ;
#128 = APPROVAL_PERSON_ORGANIZATION ( #134, #177, #14 ) ;
#129 = DATE_TIME_ROLE ( 'creation_date' ) ;
#130 = ORIENTED_EDGE ( 'NONE', *, *, #182, .T. ) ;
#131 = DIRECTION ( 'NONE',  ( 1.000000000000000000, 0.0000000000000000000, 0.0000000000000000000 ) ) ;
#132 = UNCERTAINTY_MEASURE_WITH_UNIT (LENGTH_MEASURE( 1.000000000000000100E-005 ), #18, 'distance_accuracy_value', 'NONE');
#133 = PRODUCT_DEFINITION_FORMATION_WITH_SPECIFIED_SOURCE ( 'ANY', '', #170, .NOT_KNOWN. ) ;
#134 = PERSON_AND_ORGANIZATION ( #205, #32 ) ;
#135 = ADVANCED_FACE ( 'NONE', ( #106 ), #29, .F. ) ;
#136 = VECTOR ( 'NONE', #149, 1000.000000000000000 ) ;
#137 = ORIENTED_EDGE ( 'NONE', *, *, #171, .T. ) ;
#138 = EDGE_CURVE ( 'NONE', #33, #21, #116, .T. ) ;
#139 = FACE_OUTER_BOUND ( 'NONE', #77, .T. ) ;
#140 = FACE_OUTER_BOUND ( 'NONE', #207, .T. ) ;
#141 = VERTEX_POINT ( 'NONE', #199 ) ;
#142 = CARTESIAN_POINT ( 'NONE',  ( 6.249999999999998200, -6.249999999999998200, -3.000000000000000000 ) ) ;
#143 = VECTOR ( 'NONE', #204, 1000.000000000000000 ) ;
#144 = APPROVAL_DATE_TIME ( #114, #121 ) ;
#145 = DIRECTION ( 'NONE',  ( 0.0000000000000000000, 1.000000000000000000, 0.0000000000000000000 ) ) ;
#146 = PRODUCT_DEFINITION_SHAPE ( 'NONE', 'NONE',  #25 ) ;
#147 = VECTOR ( 'NONE', #162, 1000.000000000000000 ) ;
#148 = VERTEX_POINT ( 'NONE', #50 ) ;
#149 = DIRECTION ( 'NONE',  ( -0.0000000000000000000, -1.000000000000000000, -0.0000000000000000000 ) ) ;
#150 = AXIS2_PLACEMENT_3D ( 'NONE', #30, #7, #221 ) ;
#151 = CARTESIAN_POINT ( 'NONE',  ( 6.249999999999998200, -6.249999999999998200, 3.000000000000000000 ) ) ;
#152 = ORIENTED_EDGE ( 'NONE', *, *, #12, .F. ) ;
#153 = PERSON_AND_ORGANIZATION ( #205, #32 ) ;
#154 = DATE_AND_TIME ( #85, #105 ) ;
#155 = ORIENTED_EDGE ( 'NONE', *, *, #208, .F. ) ;
#156 = ORIENTED_EDGE ( 'NONE', *, *, #53, .T. ) ;
#157 = LOCAL_TIME ( 8, 45, 34.00000000000000000, #224 ) ;
#158 = PLANE ( 'NONE',  #166 ) ;
#159 = EDGE_CURVE ( 'NONE', #112, #35, #73, .T. ) ;
#160 = DIRECTION ( 'NONE',  ( 1.000000000000000000, 0.0000000000000000000, -0.0000000000000000000 ) ) ;
#161 = CARTESIAN_POINT ( 'NONE',  ( 0.0000000000000000000, 0.0000000000000000000, 3.000000000000000000 ) ) ;
#162 = DIRECTION ( 'NONE',  ( -0.0000000000000000000, -0.0000000000000000000, -1.000000000000000000 ) ) ;
#163 = PERSON_AND_ORGANIZATION ( #205, #32 ) ;
#164 = PLANE ( 'NONE',  #108 ) ;
#165 = ORIENTED_EDGE ( 'NONE', *, *, #138, .F. ) ;
#166 = AXIS2_PLACEMENT_3D ( 'NONE', #222, #80, #180 ) ;
#167 = CARTESIAN_POINT ( 'NONE',  ( 6.249999999999998200, -6.249999999999998200, 3.000000000000000000 ) ) ;
#168 = APPROVAL_STATUS ( 'not_yet_approved' ) ;
#169 = PERSON_AND_ORGANIZATION_ROLE ( 'creator' ) ;
#170 = PRODUCT ( 'Web Model 37117MX_37117', 'Web Model 37117MX_37117', '', ( #16 ) ) ;
#171 = EDGE_CURVE ( 'NONE', #81, #141, #188, .T. ) ;
#172 = LINE ( 'NONE', #225, #147 ) ;
#173 = PERSON_AND_ORGANIZATION ( #205, #32 ) ;
#174 = COORDINATED_UNIVERSAL_TIME_OFFSET ( 5, 0, .BEHIND. ) ;
#175 = PERSON_AND_ORGANIZATION ( #205, #32 ) ;
#176 = ORIENTED_EDGE ( 'NONE', *, *, #171, .F. ) ;
#177 = APPROVAL ( #19, 'UNSPECIFIED' ) ;
#178 = MANIFOLD_SOLID_BREP ( 'Boss-Extrude1', #203 ) ;
#179 = COORDINATED_UNIVERSAL_TIME_OFFSET ( 5, 0, .BEHIND. ) ;
#180 = DIRECTION ( 'NONE',  ( 0.0000000000000000000, 0.0000000000000000000, -1.000000000000000000 ) ) ;
#181 = CC_DESIGN_DATE_AND_TIME_ASSIGNMENT ( #154, #129, ( #25 ) ) ;
#182 = EDGE_CURVE ( 'NONE', #141, #107, #186, .T. ) ;
#183 = PERSON_AND_ORGANIZATION_ROLE ( 'design_supplier' ) ;
#184 = PERSON_AND_ORGANIZATION_ROLE ( 'creator' ) ;
#185 = APPLICATION_CONTEXT ( 'configuration controlled 3d designs of mechanical parts and assemblies' ) ;
#186 = LINE ( 'NONE', #151, #41 ) ;
#187 =( GEOMETRIC_REPRESENTATION_CONTEXT ( 3 ) GLOBAL_UNCERTAINTY_ASSIGNED_CONTEXT ( ( #132 ) ) GLOBAL_UNIT_ASSIGNED_CONTEXT ( ( #18, #88, #52 ) ) REPRESENTATION_CONTEXT ( 'NONE', 'WORKASPACE' ) );
#188 = LINE ( 'NONE', #5, #109 ) ;
#189 = ORIENTED_EDGE ( 'NONE', *, *, #232, .F. ) ;
#190 = EDGE_CURVE ( 'NONE', #107, #35, #23, .T. ) ;
#191 = COORDINATED_UNIVERSAL_TIME_OFFSET ( 5, 0, .BEHIND. ) ;
#192 = APPROVAL_PERSON_ORGANIZATION ( #173, #121, #69 ) ;
#193 = FACE_OUTER_BOUND ( 'NONE', #236, .T. ) ;
#194 = ORIENTED_EDGE ( 'NONE', *, *, #138, .T. ) ;
#195 = DIRECTION ( 'NONE',  ( -1.000000000000000000, 0.0000000000000000000, 0.0000000000000000000 ) ) ;
#196 = PLANE ( 'NONE',  #123 ) ;
#197 = DATE_AND_TIME ( #9, #201 ) ;
#198 = LOCAL_TIME ( 8, 45, 34.00000000000000000, #59 ) ;
#199 = CARTESIAN_POINT ( 'NONE',  ( -6.250000000000000000, -6.250000000000000000, 3.000000000000000000 ) ) ;
#200 = DIRECTION ( 'NONE',  ( 1.000000000000000000, 1.387778780781445900E-016, -0.0000000000000000000 ) ) ;
#201 = LOCAL_TIME ( 8, 45, 34.00000000000000000, #174 ) ;
#202 = AXIS2_PLACEMENT_3D ( 'NONE', #228, #70, #131 ) ;
#203 = CLOSED_SHELL ( 'NONE', ( #1, #135, #40, #75, #76, #95 ) ) ;
#204 = DIRECTION ( 'NONE',  ( -0.0000000000000000000, -0.0000000000000000000, -1.000000000000000000 ) ) ;
#205 = PERSON ( 'UNSPECIFIED', 'UNSPECIFIED', 'UNSPECIFIED', ('UNSPECIFIED'), ('UNSPECIFIED'), ('UNSPECIFIED') ) ;
#206 = APPLICATION_PROTOCOL_DEFINITION ( 'international standard', 'config_control_design', 1994, #36 ) ;
#207 = EDGE_LOOP ( 'NONE', ( #155, #165, #20, #122 ) ) ;
#208 = EDGE_CURVE ( 'NONE', #21, #112, #55, .T. ) ;
#209 = CC_DESIGN_APPROVAL ( #177, ( #25 ) ) ;
#210 = LINE ( 'NONE', #142, #92 ) ;
#211 = ORIENTED_EDGE ( 'NONE', *, *, #159, .T. ) ;
#212 = ORIENTED_EDGE ( 'NONE', *, *, #190, .T. ) ;
#213 = PERSON_AND_ORGANIZATION ( #205, #32 ) ;
#214 = EDGE_LOOP ( 'NONE', ( #211, #102, #24, #45 ) ) ;
#215 = CC_DESIGN_PERSON_AND_ORGANIZATION_ASSIGNMENT ( #213, #169, ( #133 ) ) ;
#216 = APPROVAL ( #51, 'UNSPECIFIED' ) ;
#217 = DIRECTION ( 'NONE',  ( -1.000000000000000000, -1.387778780781445700E-016, 0.0000000000000000000 ) ) ;
#218 = APPROVAL_DATE_TIME ( #101, #177 ) ;
#219 = ORIENTED_EDGE ( 'NONE', *, *, #43, .T. ) ;
#220 = CARTESIAN_POINT ( 'NONE',  ( -6.250000000000000000, 6.250000000000000000, 3.000000000000000000 ) ) ;
#221 = DIRECTION ( 'NONE',  ( 1.000000000000000000, 1.387778780781445700E-016, 0.0000000000000000000 ) ) ;
#222 = CARTESIAN_POINT ( 'NONE',  ( -6.250000000000000000, -6.250000000000000000, 3.000000000000000000 ) ) ;
#223 = CC_DESIGN_DATE_AND_TIME_ASSIGNMENT ( #197, #34, ( #127 ) ) ;
#224 = COORDINATED_UNIVERSAL_TIME_OFFSET ( 5, 0, .BEHIND. ) ;
#225 = CARTESIAN_POINT ( 'NONE',  ( 6.249999999999998200, 6.250000000000001800, 3.000000000000000000 ) ) ;
#226 = LINE ( 'NONE', #11, #74 ) ;
#227 = APPLICATION_PROTOCOL_DEFINITION ( 'international standard', 'config_control_design', 1994, #185 ) ;
#228 = CARTESIAN_POINT ( 'NONE',  ( 0.0000000000000000000, 0.0000000000000000000, 0.0000000000000000000 ) ) ;
#229 = PERSON_AND_ORGANIZATION_ROLE ( 'design_owner' ) ;
#230 = ORIENTED_EDGE ( 'NONE', *, *, #208, .T. ) ;
#231 = DIRECTION ( 'NONE',  ( 0.0000000000000000000, 1.000000000000000000, 0.0000000000000000000 ) ) ;
#232 = EDGE_CURVE ( 'NONE', #107, #148, #2, .T. ) ;
#233 = CARTESIAN_POINT ( 'NONE',  ( 6.249999999999998200, -6.249999999999998200, 3.000000000000000000 ) ) ;
#234 = APPROVAL_DATE_TIME ( #48, #216 ) ;
#235 = VECTOR ( 'NONE', #200, 1000.000000000000000 ) ;
#236 = EDGE_LOOP ( 'NONE', ( #156, #56, #189, #212 ) ) ;
#237 = CC_DESIGN_SECURITY_CLASSIFICATION ( #127, ( #133 ) ) ;
ENDSEC;
END-ISO-10303-21;
