ISO-10303-21;
HEADER;
FILE_DESCRIPTION (( 'STEP AP203' ),
    '1' );
FILE_NAME ('Web Model 83355.STEP',
    '2017-02-01T15:19:14',
    ( '' ),
    ( '' ),
    'SwSTEP 2.0',
    'SolidWorks 2016',
    '' );
FILE_SCHEMA (( 'CONFIG_CONTROL_DESIGN' ));
ENDSEC;

DATA;
#1 = DIRECTION ( 'NONE',  ( -1.000000000000000000, -0.0000000000000000000, -0.0000000000000000000 ) ) ;
#2 = AXIS2_PLACEMENT_3D ( 'NONE', #165, #47, #147 ) ;
#3 = DIRECTION ( 'NONE',  ( 1.000000000000000000, 0.0000000000000000000, 0.0000000000000000000 ) ) ;
#4 = APPLICATION_CONTEXT ( 'configuration controlled 3d designs of mechanical parts and assemblies' ) ;
#5 = ORIENTED_EDGE ( 'NONE', *, *, #114, .T. ) ;
#6 = PRODUCT_DEFINITION_FORMATION_WITH_SPECIFIED_SOURCE ( 'ANY', '', #101, .NOT_KNOWN. ) ;
#7 = APPROVAL_ROLE ( '' ) ;
#8 = LINE ( 'NONE', #12, #80 ) ;
#9 = ORIENTED_EDGE ( 'NONE', *, *, #146, .F. ) ;
#10 = CIRCLE ( 'NONE', #71, 12.50000000000000000 ) ;
#11 = EDGE_LOOP ( 'NONE', ( #66, #108, #105, #63 ) ) ;
#12 = CARTESIAN_POINT ( 'NONE',  ( 1.000000000000000000, 0.0000000000000000000, 12.50000000000000000 ) ) ;
#13 = ORIENTED_EDGE ( 'NONE', *, *, #24, .T. ) ;
#14 = DIRECTION ( 'NONE',  ( 0.0000000000000000000, 0.0000000000000000000, -1.000000000000000000 ) ) ;
#15 = CARTESIAN_POINT ( 'NONE',  ( 0.0000000000000000000, 0.0000000000000000000, 0.0000000000000000000 ) ) ;
#16 = MECHANICAL_CONTEXT ( 'NONE', #138, 'mechanical' ) ;
#17 = DATE_TIME_ROLE ( 'classification_date' ) ;
#18 = APPROVAL_PERSON_ORGANIZATION ( #170, #70, #137 ) ;
#19 = ORGANIZATION ( 'UNSPECIFIED', 'UNSPECIFIED', '' ) ;
#20 = PLANE ( 'NONE',  #52 ) ;
#21 = DIRECTION ( 'NONE',  ( 0.0000000000000000000, 0.0000000000000000000, -1.000000000000000000 ) ) ;
#22 = ADVANCED_FACE ( 'NONE', ( #41 ), #160, .T. ) ;
#23 = DIRECTION ( 'NONE',  ( 0.0000000000000000000, 0.0000000000000000000, 1.000000000000000000 ) ) ;
#24 = EDGE_CURVE ( 'NONE', #172, #30, #62, .T. ) ;
#25 = CC_DESIGN_DATE_AND_TIME_ASSIGNMENT ( #77, #17, ( #157 ) ) ;
#26 = PERSON_AND_ORGANIZATION_ROLE ( 'design_owner' ) ;
#27 = PRODUCT_RELATED_PRODUCT_CATEGORY ( 'detail', '', ( #101 ) ) ;
#28 = VERTEX_POINT ( 'NONE', #117 ) ;
#29 = AXIS2_PLACEMENT_3D ( 'NONE', #102, #72, #23 ) ;
#30 = VERTEX_POINT ( 'NONE', #152 ) ;
#31 = DIRECTION ( 'NONE',  ( 0.0000000000000000000, 0.0000000000000000000, -1.000000000000000000 ) ) ;
#32 = DIRECTION ( 'NONE',  ( 1.000000000000000000, 0.0000000000000000000, 0.0000000000000000000 ) ) ;
#33 = CARTESIAN_POINT ( 'NONE',  ( 0.0000000000000000000, 0.0000000000000000000, 0.0000000000000000000 ) ) ;
#34 = CYLINDRICAL_SURFACE ( 'NONE', #29, 12.50000000000000000 ) ;
#35 = APPROVAL_STATUS ( 'not_yet_approved' ) ;
#36 = CC_DESIGN_PERSON_AND_ORGANIZATION_ASSIGNMENT ( #54, #26, ( #101 ) ) ;
#37 =( NAMED_UNIT ( * ) SI_UNIT ( $, .STERADIAN. ) SOLID_ANGLE_UNIT ( ) );
#38 = PERSON_AND_ORGANIZATION ( #139, #19 ) ;
#39 = FACE_OUTER_BOUND ( 'NONE', #11, .T. ) ;
#40 = ORIENTED_EDGE ( 'NONE', *, *, #127, .F. ) ;
#41 = FACE_OUTER_BOUND ( 'NONE', #145, .T. ) ;
#42 = DATE_AND_TIME ( #162, #125 ) ;
#43 = CLOSED_SHELL ( 'NONE', ( #22, #156, #56, #61 ) ) ;
#44 = CALENDAR_DATE ( 2017, 1, 2 ) ;
#45 = PERSON_AND_ORGANIZATION ( #139, #19 ) ;
#46 = DIRECTION ( 'NONE',  ( 1.000000000000000000, 0.0000000000000000000, 0.0000000000000000000 ) ) ;
#47 = DIRECTION ( 'NONE',  ( 1.000000000000000000, 0.0000000000000000000, 0.0000000000000000000 ) ) ;
#48 = AXIS2_PLACEMENT_3D ( 'NONE', #15, #120, #49 ) ;
#49 = DIRECTION ( 'NONE',  ( 0.0000000000000000000, 0.0000000000000000000, -1.000000000000000000 ) ) ;
#50 = DATE_TIME_ROLE ( 'creation_date' ) ;
#51 = COORDINATED_UNIVERSAL_TIME_OFFSET ( 5, 0, .BEHIND. ) ;
#52 = AXIS2_PLACEMENT_3D ( 'NONE', #33, #119, #59 ) ;
#53 =( GEOMETRIC_REPRESENTATION_CONTEXT ( 3 ) GLOBAL_UNCERTAINTY_ASSIGNED_CONTEXT ( ( #85 ) ) GLOBAL_UNIT_ASSIGNED_CONTEXT ( ( #58, #60, #37 ) ) REPRESENTATION_CONTEXT ( 'NONE', 'WORKASPACE' ) );
#54 = PERSON_AND_ORGANIZATION ( #139, #19 ) ;
#55 = DIRECTION ( 'NONE',  ( -1.000000000000000000, -0.0000000000000000000, -0.0000000000000000000 ) ) ;
#56 = ADVANCED_FACE ( 'NONE', ( #133 ), #151, .T. ) ;
#57 = LOCAL_TIME ( 10, 19, 14.00000000000000000, #91 ) ;
#58 =( LENGTH_UNIT ( ) NAMED_UNIT ( * ) SI_UNIT ( .MILLI., .METRE. ) );
#59 = DIRECTION ( 'NONE',  ( 0.0000000000000000000, 0.0000000000000000000, -1.000000000000000000 ) ) ;
#60 =( NAMED_UNIT ( * ) PLANE_ANGLE_UNIT ( ) SI_UNIT ( $, .RADIAN. ) );
#61 = ADVANCED_FACE ( 'NONE', ( #153 ), #20, .F. ) ;
#62 = LINE ( 'NONE', #148, #104 ) ;
#63 = ORIENTED_EDGE ( 'NONE', *, *, #146, .T. ) ;
#64 = PRODUCT_DEFINITION_SHAPE ( 'NONE', 'NONE',  #142 ) ;
#65 = AXIS2_PLACEMENT_3D ( 'NONE', #118, #121, #89 ) ;
#66 = ORIENTED_EDGE ( 'NONE', *, *, #24, .F. ) ;
#67 = PERSON_AND_ORGANIZATION ( #139, #19 ) ;
#68 = CC_DESIGN_PERSON_AND_ORGANIZATION_ASSIGNMENT ( #38, #103, ( #157 ) ) ;
#69 = ORIENTED_EDGE ( 'NONE', *, *, #127, .T. ) ;
#70 = APPROVAL ( #106, 'UNSPECIFIED' ) ;
#71 = AXIS2_PLACEMENT_3D ( 'NONE', #132, #46, #14 ) ;
#72 = DIRECTION ( 'NONE',  ( -1.000000000000000000, -0.0000000000000000000, -0.0000000000000000000 ) ) ;
#73 = AXIS2_PLACEMENT_3D ( 'NONE', #115, #32, #31 ) ;
#74 = APPLICATION_PROTOCOL_DEFINITION ( 'international standard', 'config_control_design', 1994, #138 ) ;
#75 = PERSON_AND_ORGANIZATION ( #139, #19 ) ;
#76 = EDGE_LOOP ( 'NONE', ( #9, #40 ) ) ;
#77 = DATE_AND_TIME ( #98, #79 ) ;
#78 = CC_DESIGN_APPROVAL ( #70, ( #142 ) ) ;
#79 = LOCAL_TIME ( 10, 19, 14.00000000000000000, #128 ) ;
#80 = VECTOR ( 'NONE', #55, 1000.000000000000000 ) ;
#81 = DATE_AND_TIME ( #116, #161 ) ;
#82 = AXIS2_PLACEMENT_3D ( 'NONE', #174, #3, #21 ) ;
#83 = CALENDAR_DATE ( 2017, 1, 2 ) ;
#84 = DIRECTION ( 'NONE',  ( 0.0000000000000000000, 0.0000000000000000000, 1.000000000000000000 ) ) ;
#85 = UNCERTAINTY_MEASURE_WITH_UNIT (LENGTH_MEASURE( 1.000000000000000100E-005 ), #58, 'distance_accuracy_value', 'NONE');
#86 = DIRECTION ( 'NONE',  ( -1.000000000000000000, -0.0000000000000000000, -0.0000000000000000000 ) ) ;
#87 = DATE_AND_TIME ( #44, #57 ) ;
#88 = CARTESIAN_POINT ( 'NONE',  ( 1.000000000000000000, 0.0000000000000000000, 12.50000000000000000 ) ) ;
#89 = DIRECTION ( 'NONE',  ( 1.000000000000000000, 0.0000000000000000000, 0.0000000000000000000 ) ) ;
#90 = CC_DESIGN_PERSON_AND_ORGANIZATION_ASSIGNMENT ( #45, #166, ( #142 ) ) ;
#91 = COORDINATED_UNIVERSAL_TIME_OFFSET ( 5, 0, .BEHIND. ) ;
#92 = APPROVAL_DATE_TIME ( #131, #70 ) ;
#93 = PERSON_AND_ORGANIZATION_ROLE ( 'creator' ) ;
#94 = SHAPE_DEFINITION_REPRESENTATION ( #64, #112 ) ;
#95 = APPROVAL_PERSON_ORGANIZATION ( #113, #126, #168 ) ;
#96 = MANIFOLD_SOLID_BREP ( 'Extrude1', #43 ) ;
#97 = APPROVAL ( #158, 'UNSPECIFIED' ) ;
#98 = CALENDAR_DATE ( 2017, 1, 2 ) ;
#99 = ORIENTED_EDGE ( 'NONE', *, *, #169, .F. ) ;
#100 = CC_DESIGN_APPROVAL ( #126, ( #6 ) ) ;
#101 = PRODUCT ( 'Web Model 83355', 'Web Model 83355', '', ( #16 ) ) ;
#102 = CARTESIAN_POINT ( 'NONE',  ( 1.000000000000000000, 0.0000000000000000000, 0.0000000000000000000 ) ) ;
#103 = PERSON_AND_ORGANIZATION_ROLE ( 'classification_officer' ) ;
#104 = VECTOR ( 'NONE', #86, 1000.000000000000000 ) ;
#105 = ORIENTED_EDGE ( 'NONE', *, *, #129, .T. ) ;
#106 = APPROVAL_STATUS ( 'not_yet_approved' ) ;
#107 = APPLICATION_PROTOCOL_DEFINITION ( 'international standard', 'config_control_design', 1994, #4 ) ;
#108 = ORIENTED_EDGE ( 'NONE', *, *, #114, .F. ) ;
#109 = EDGE_LOOP ( 'NONE', ( #5, #154 ) ) ;
#110 = CC_DESIGN_PERSON_AND_ORGANIZATION_ASSIGNMENT ( #159, #122, ( #6 ) ) ;
#111 = ORIENTED_EDGE ( 'NONE', *, *, #129, .F. ) ;
#112 = ADVANCED_BREP_SHAPE_REPRESENTATION ( 'Web Model 83355', ( #96, #65 ), #53 ) ;
#113 = PERSON_AND_ORGANIZATION ( #139, #19 ) ;
#114 = EDGE_CURVE ( 'NONE', #141, #172, #140, .T. ) ;
#115 = CARTESIAN_POINT ( 'NONE',  ( 1.000000000000000000, 0.0000000000000000000, 0.0000000000000000000 ) ) ;
#116 = CALENDAR_DATE ( 2017, 1, 2 ) ;
#117 = CARTESIAN_POINT ( 'NONE',  ( 0.0000000000000000000, 0.0000000000000000000, 12.50000000000000000 ) ) ;
#118 = CARTESIAN_POINT ( 'NONE',  ( 0.0000000000000000000, 0.0000000000000000000, 0.0000000000000000000 ) ) ;
#119 = DIRECTION ( 'NONE',  ( 1.000000000000000000, 0.0000000000000000000, 0.0000000000000000000 ) ) ;
#120 = DIRECTION ( 'NONE',  ( 1.000000000000000000, 0.0000000000000000000, 0.0000000000000000000 ) ) ;
#121 = DIRECTION ( 'NONE',  ( 0.0000000000000000000, 0.0000000000000000000, 1.000000000000000000 ) ) ;
#122 = PERSON_AND_ORGANIZATION_ROLE ( 'design_supplier' ) ;
#123 = COORDINATED_UNIVERSAL_TIME_OFFSET ( 5, 0, .BEHIND. ) ;
#124 = AXIS2_PLACEMENT_3D ( 'NONE', #135, #1, #84 ) ;
#125 = LOCAL_TIME ( 10, 19, 14.00000000000000000, #51 ) ;
#126 = APPROVAL ( #35, 'UNSPECIFIED' ) ;
#127 = EDGE_CURVE ( 'NONE', #30, #28, #10, .T. ) ;
#128 = COORDINATED_UNIVERSAL_TIME_OFFSET ( 5, 0, .BEHIND. ) ;
#129 = EDGE_CURVE ( 'NONE', #141, #28, #8, .T. ) ;
#130 = APPROVAL_PERSON_ORGANIZATION ( #75, #97, #7 ) ;
#131 = DATE_AND_TIME ( #83, #164 ) ;
#132 = CARTESIAN_POINT ( 'NONE',  ( 0.0000000000000000000, 0.0000000000000000000, 0.0000000000000000000 ) ) ;
#133 = FACE_OUTER_BOUND ( 'NONE', #109, .T. ) ;
#134 = APPROVAL_DATE_TIME ( #87, #97 ) ;
#135 = CARTESIAN_POINT ( 'NONE',  ( 1.000000000000000000, 0.0000000000000000000, 0.0000000000000000000 ) ) ;
#136 = CC_DESIGN_PERSON_AND_ORGANIZATION_ASSIGNMENT ( #67, #93, ( #6 ) ) ;
#137 = APPROVAL_ROLE ( '' ) ;
#138 = APPLICATION_CONTEXT ( 'configuration controlled 3d designs of mechanical parts and assemblies' ) ;
#139 = PERSON ( 'UNSPECIFIED', 'UNSPECIFIED', 'UNSPECIFIED', ('UNSPECIFIED'), ('UNSPECIFIED'), ('UNSPECIFIED') ) ;
#140 = CIRCLE ( 'NONE', #82, 12.50000000000000000 ) ;
#141 = VERTEX_POINT ( 'NONE', #88 ) ;
#142 = PRODUCT_DEFINITION ( 'UNKNOWN', '', #6, #149 ) ;
#143 = APPROVAL_DATE_TIME ( #42, #126 ) ;
#144 = CIRCLE ( 'NONE', #48, 12.50000000000000000 ) ;
#145 = EDGE_LOOP ( 'NONE', ( #99, #13, #69, #111 ) ) ;
#146 = EDGE_CURVE ( 'NONE', #28, #30, #144, .T. ) ;
#147 = DIRECTION ( 'NONE',  ( 0.0000000000000000000, 0.0000000000000000000, -1.000000000000000000 ) ) ;
#148 = CARTESIAN_POINT ( 'NONE',  ( 1.000000000000000000, 1.530808498934191500E-015, -12.50000000000000000 ) ) ;
#149 = DESIGN_CONTEXT ( 'detailed design', #4, 'design' ) ;
#150 = CARTESIAN_POINT ( 'NONE',  ( 1.000000000000000000, 1.530808498934191500E-015, -12.50000000000000000 ) ) ;
#151 = PLANE ( 'NONE',  #73 ) ;
#152 = CARTESIAN_POINT ( 'NONE',  ( 0.0000000000000000000, 1.530808498934191500E-015, -12.50000000000000000 ) ) ;
#153 = FACE_OUTER_BOUND ( 'NONE', #76, .T. ) ;
#154 = ORIENTED_EDGE ( 'NONE', *, *, #169, .T. ) ;
#155 = SECURITY_CLASSIFICATION_LEVEL ( 'unclassified' ) ;
#156 = ADVANCED_FACE ( 'NONE', ( #39 ), #34, .T. ) ;
#157 = SECURITY_CLASSIFICATION ( '', '', #155 ) ;
#158 = APPROVAL_STATUS ( 'not_yet_approved' ) ;
#159 = PERSON_AND_ORGANIZATION ( #139, #19 ) ;
#160 = CYLINDRICAL_SURFACE ( 'NONE', #124, 12.50000000000000000 ) ;
#161 = LOCAL_TIME ( 10, 19, 14.00000000000000000, #167 ) ;
#162 = CALENDAR_DATE ( 2017, 1, 2 ) ;
#163 = CC_DESIGN_APPROVAL ( #97, ( #157 ) ) ;
#164 = LOCAL_TIME ( 10, 19, 14.00000000000000000, #123 ) ;
#165 = CARTESIAN_POINT ( 'NONE',  ( 1.000000000000000000, 0.0000000000000000000, 0.0000000000000000000 ) ) ;
#166 = PERSON_AND_ORGANIZATION_ROLE ( 'creator' ) ;
#167 = COORDINATED_UNIVERSAL_TIME_OFFSET ( 5, 0, .BEHIND. ) ;
#168 = APPROVAL_ROLE ( '' ) ;
#169 = EDGE_CURVE ( 'NONE', #172, #141, #175, .T. ) ;
#170 = PERSON_AND_ORGANIZATION ( #139, #19 ) ;
#171 = CC_DESIGN_DATE_AND_TIME_ASSIGNMENT ( #81, #50, ( #142 ) ) ;
#172 = VERTEX_POINT ( 'NONE', #150 ) ;
#173 = CC_DESIGN_SECURITY_CLASSIFICATION ( #157, ( #6 ) ) ;
#174 = CARTESIAN_POINT ( 'NONE',  ( 1.000000000000000000, 0.0000000000000000000, 0.0000000000000000000 ) ) ;
#175 = CIRCLE ( 'NONE', #2, 12.50000000000000000 ) ;
ENDSEC;
END-ISO-10303-21;
