ISO-10303-21;
HEADER;
FILE_DESCRIPTION (( 'STEP AP203' ),
    '1' );
FILE_NAME ('Web Model 11535_11535.step',
    '2019-12-17T13:40:36',
    ( '' ),
    ( '' ),
    'SwSTEP 2.0',
    'SolidWorks 2018',
    '' );
FILE_SCHEMA (( 'CONFIG_CONTROL_DESIGN' ));
ENDSEC;

DATA;
#1 = EDGE_CURVE ( 'NONE', #9, #173, #156, .T. ) ;
#2 = FACE_OUTER_BOUND ( 'NONE', #25, .T. ) ;
#3 =( GEOMETRIC_REPRESENTATION_CONTEXT ( 3 ) GLOBAL_UNCERTAINTY_ASSIGNED_CONTEXT ( ( #20 ) ) GLOBAL_UNIT_ASSIGNED_CONTEXT ( ( #129, #52, #239 ) ) REPRESENTATION_CONTEXT ( 'NONE', 'WORKASPACE' ) );
#4 = EDGE_LOOP ( 'NONE', ( #21, #177, #40, #81 ) ) ;
#5 = DIRECTION ( 'NONE',  ( 0.0000000000000000000, 0.0000000000000000000, 1.000000000000000000 ) ) ;
#6 = APPROVAL_DATE_TIME ( #194, #186 ) ;
#7 = PRODUCT_DEFINITION_FORMATION_WITH_SPECIFIED_SOURCE ( 'ANY', '', #174, .NOT_KNOWN. ) ;
#8 = APPROVAL_DATE_TIME ( #13, #50 ) ;
#9 = VERTEX_POINT ( 'NONE', #119 ) ;
#10 = SHAPE_DEFINITION_REPRESENTATION ( #54, #193 ) ;
#11 = APPLICATION_CONTEXT ( 'configuration controlled 3d designs of mechanical parts and assemblies' ) ;
#12 = DIRECTION ( 'NONE',  ( 0.0000000000000000000, 1.000000000000000000, 0.0000000000000000000 ) ) ;
#13 = DATE_AND_TIME ( #215, #18 ) ;
#14 = DIRECTION ( 'NONE',  ( 0.0000000000000000000, -1.000000000000000000, 0.0000000000000000000 ) ) ;
#15 = CARTESIAN_POINT ( 'NONE',  ( -7.615995547623000128, 0.0000000000000000000, 0.0000000000000000000 ) ) ;
#16 = PERSON_AND_ORGANIZATION_ROLE ( 'design_supplier' ) ;
#17 = FACE_OUTER_BOUND ( 'NONE', #143, .T. ) ;
#18 = LOCAL_TIME ( 8, 40, 36.00000000000000000, #122 ) ;
#19 = ORIENTED_EDGE ( 'NONE', *, *, #35, .F. ) ;
#20 = UNCERTAINTY_MEASURE_WITH_UNIT (LENGTH_MEASURE( 1.000000000000000082E-05 ), #129, 'distance_accuracy_value', 'NONE');
#21 = ORIENTED_EDGE ( 'NONE', *, *, #212, .T. ) ;
#22 = PLANE ( 'NONE',  #49 ) ;
#23 = CARTESIAN_POINT ( 'NONE',  ( -306.5000000000000000, 0.0000000000000000000, 0.0000000000000000000 ) ) ;
#24 = CIRCLE ( 'NONE', #232, 20.00000000000000000 ) ;
#25 = EDGE_LOOP ( 'NONE', ( #68, #190 ) ) ;
#26 = CARTESIAN_POINT ( 'NONE',  ( -7.615995547623000128, 0.0000000000000000000, 0.0000000000000000000 ) ) ;
#27 = DATE_AND_TIME ( #39, #170 ) ;
#28 = DIRECTION ( 'NONE',  ( 1.000000000000000000, 0.0000000000000000000, 0.0000000000000000000 ) ) ;
#29 = AXIS2_PLACEMENT_3D ( 'NONE', #92, #51, #98 ) ;
#30 = APPLICATION_PROTOCOL_DEFINITION ( 'international standard', 'config_control_design', 1994, #32 ) ;
#31 = VECTOR ( 'NONE', #195, 1000.000000000000114 ) ;
#32 = APPLICATION_CONTEXT ( 'configuration controlled 3d designs of mechanical parts and assemblies' ) ;
#33 = CARTESIAN_POINT ( 'NONE',  ( -8.605945041284000396, 0.0000000000000000000, 0.0000000000000000000 ) ) ;
#34 = CARTESIAN_POINT ( 'NONE',  ( -7.615995547623000128, -20.00000000000000000, 0.0000000000000000000 ) ) ;
#35 = EDGE_CURVE ( 'NONE', #59, #173, #62, .T. ) ;
#36 = COORDINATED_UNIVERSAL_TIME_OFFSET ( 5, 0, .BEHIND. ) ;
#37 = EDGE_LOOP ( 'NONE', ( #19, #78 ) ) ;
#38 = EDGE_CURVE ( 'NONE', #94, #9, #166, .T. ) ;
#39 = CALENDAR_DATE ( 2019, 17, 12 ) ;
#40 = ORIENTED_EDGE ( 'NONE', *, *, #65, .F. ) ;
#41 = DIRECTION ( 'NONE',  ( 0.0000000000000000000, 1.000000000000000000, 0.0000000000000000000 ) ) ;
#42 = ADVANCED_FACE ( 'NONE', ( #2 ), #22, .T. ) ;
#43 = DIRECTION ( 'NONE',  ( 1.000000000000000000, 0.0000000000000000000, 0.0000000000000000000 ) ) ;
#44 = FACE_OUTER_BOUND ( 'NONE', #205, .T. ) ;
#45 = CC_DESIGN_PERSON_AND_ORGANIZATION_ASSIGNMENT ( #140, #16, ( #7 ) ) ;
#46 = DIRECTION ( 'NONE',  ( 1.000000000000000000, 0.0000000000000000000, 0.0000000000000000000 ) ) ;
#47 = CC_DESIGN_DATE_AND_TIME_ASSIGNMENT ( #27, #207, ( #148 ) ) ;
#48 = CIRCLE ( 'NONE', #61, 20.00000000000000000 ) ;
#49 = AXIS2_PLACEMENT_3D ( 'NONE', #118, #46, #41 ) ;
#50 = APPROVAL ( #181, 'UNSPECIFIED' ) ;
#51 = DIRECTION ( 'NONE',  ( 0.0000000000000000000, 0.0000000000000000000, -1.000000000000000000 ) ) ;
#52 =( NAMED_UNIT ( * ) PLANE_ANGLE_UNIT ( ) SI_UNIT ( $, .RADIAN. ) );
#53 = DIRECTION ( 'NONE',  ( 1.000000000000000000, 0.0000000000000000000, 0.0000000000000000000 ) ) ;
#54 = PRODUCT_DEFINITION_SHAPE ( 'NONE', 'NONE',  #162 ) ;
#55 = DATE_TIME_ROLE ( 'creation_date' ) ;
#56 = AXIS2_PLACEMENT_3D ( 'NONE', #133, #113, #128 ) ;
#57 = DIRECTION ( 'NONE',  ( -1.000000000000000000, 0.0000000000000000000, 0.0000000000000000000 ) ) ;
#58 = CYLINDRICAL_SURFACE ( 'NONE', #153, 20.00000000000000000 ) ;
#59 = VERTEX_POINT ( 'NONE', #142 ) ;
#60 = LINE ( 'NONE', #144, #86 ) ;
#61 = AXIS2_PLACEMENT_3D ( 'NONE', #124, #217, #69 ) ;
#62 = CIRCLE ( 'NONE', #158, 298.5000000000000000 ) ;
#63 = ADVANCED_FACE ( 'NONE', ( #103 ), #70, .T. ) ;
#64 = AXIS2_PLACEMENT_3D ( 'NONE', #192, #43, #84 ) ;
#65 = EDGE_CURVE ( 'NONE', #94, #110, #48, .T. ) ;
#66 = SPHERICAL_SURFACE ( 'NONE', #97, 298.5000000000000000 ) ;
#67 = CC_DESIGN_APPROVAL ( #50, ( #7 ) ) ;
#68 = ORIENTED_EDGE ( 'NONE', *, *, #65, .T. ) ;
#69 = DIRECTION ( 'NONE',  ( 0.0000000000000000000, 1.000000000000000000, 0.0000000000000000000 ) ) ;
#70 = CYLINDRICAL_SURFACE ( 'NONE', #64, 20.00000000000000000 ) ;
#71 = DIRECTION ( 'NONE',  ( -1.000000000000000000, 0.0000000000000000000, 0.0000000000000000000 ) ) ;
#72 = MECHANICAL_CONTEXT ( 'NONE', #11, 'mechanical' ) ;
#73 = DIRECTION ( 'NONE',  ( -0.7071067811863974706, 0.7071067811866975639, 0.0000000000000000000 ) ) ;
#74 = VERTEX_POINT ( 'NONE', #171 ) ;
#75 = DIRECTION ( 'NONE',  ( 0.0000000000000000000, -1.000000000000000000, 0.0000000000000000000 ) ) ;
#76 = AXIS2_PLACEMENT_3D ( 'NONE', #33, #57, #219 ) ;
#77 = SECURITY_CLASSIFICATION_LEVEL ( 'unclassified' ) ;
#78 = ORIENTED_EDGE ( 'NONE', *, *, #225, .F. ) ;
#79 = EDGE_CURVE ( 'NONE', #110, #74, #60, .T. ) ;
#80 = ORIENTED_EDGE ( 'NONE', *, *, #222, .T. ) ;
#81 = ORIENTED_EDGE ( 'NONE', *, *, #38, .T. ) ;
#82 = APPROVAL_DATE_TIME ( #125, #220 ) ;
#83 = ORIENTED_EDGE ( 'NONE', *, *, #212, .F. ) ;
#84 = DIRECTION ( 'NONE',  ( 0.0000000000000000000, -1.000000000000000000, 0.0000000000000000000 ) ) ;
#85 = AXIS2_PLACEMENT_3D ( 'NONE', #26, #176, #90 ) ;
#86 = VECTOR ( 'NONE', #87, 1000.000000000000000 ) ;
#87 = DIRECTION ( 'NONE',  ( -1.000000000000000000, 0.0000000000000000000, 0.0000000000000000000 ) ) ;
#88 = PERSON_AND_ORGANIZATION ( #198, #147 ) ;
#89 = AXIS2_PLACEMENT_3D ( 'NONE', #240, #28, #12 ) ;
#90 = DIRECTION ( 'NONE',  ( 0.0000000000000000000, 1.000000000000000000, 0.0000000000000000000 ) ) ;
#91 = EDGE_CURVE ( 'NONE', #9, #74, #109, .T. ) ;
#92 = CARTESIAN_POINT ( 'NONE',  ( -306.5000000000000000, 0.0000000000000000000, 0.0000000000000000000 ) ) ;
#93 = VECTOR ( 'NONE', #159, 1000.000000000000000 ) ;
#94 = VERTEX_POINT ( 'NONE', #213 ) ;
#95 = DIRECTION ( 'NONE',  ( 1.000000000000000000, 0.0000000000000000000, 0.0000000000000000000 ) ) ;
#96 = DIRECTION ( 'NONE',  ( 0.0000000000000000000, 1.000000000000000000, 0.0000000000000000000 ) ) ;
#97 = AXIS2_PLACEMENT_3D ( 'NONE', #235, #161, #127 ) ;
#98 = DIRECTION ( 'NONE',  ( 0.0000000000000000000, -1.000000000000000000, 0.0000000000000000000 ) ) ;
#99 = COORDINATED_UNIVERSAL_TIME_OFFSET ( 5, 0, .BEHIND. ) ;
#100 = APPROVAL_STATUS ( 'not_yet_approved' ) ;
#101 = LINE ( 'NONE', #34, #145 ) ;
#102 = AXIS2_PLACEMENT_3D ( 'NONE', #15, #199, #238 ) ;
#103 = FACE_OUTER_BOUND ( 'NONE', #137, .T. ) ;
#104 = CC_DESIGN_DATE_AND_TIME_ASSIGNMENT ( #178, #55, ( #162 ) ) ;
#105 = AXIS2_PLACEMENT_3D ( 'NONE', #131, #53, #14 ) ;
#106 = COORDINATED_UNIVERSAL_TIME_OFFSET ( 5, 0, .BEHIND. ) ;
#107 = CC_DESIGN_SECURITY_CLASSIFICATION ( #148, ( #7 ) ) ;
#108 = CC_DESIGN_PERSON_AND_ORGANIZATION_ASSIGNMENT ( #155, #115, ( #162 ) ) ;
#109 = CIRCLE ( 'NONE', #85, 20.00000000000000000 ) ;
#110 = VERTEX_POINT ( 'NONE', #111 ) ;
#111 = CARTESIAN_POINT ( 'NONE',  ( 0.0000000000000000000, -20.00000000000000000, 0.0000000000000000000 ) ) ;
#112 = CALENDAR_DATE ( 2019, 17, 12 ) ;
#113 = DIRECTION ( 'NONE',  ( 0.0000000000000000000, 0.0000000000000000000, 1.000000000000000000 ) ) ;
#114 = APPROVAL_PERSON_ORGANIZATION ( #172, #50, #203 ) ;
#115 = PERSON_AND_ORGANIZATION_ROLE ( 'creator' ) ;
#116 = CIRCLE ( 'NONE', #102, 20.00000000000000000 ) ;
#117 = CC_DESIGN_PERSON_AND_ORGANIZATION_ASSIGNMENT ( #184, #185, ( #7 ) ) ;
#118 = CARTESIAN_POINT ( 'NONE',  ( 0.0000000000000000000, 0.0000000000000000000, 0.0000000000000000000 ) ) ;
#119 = CARTESIAN_POINT ( 'NONE',  ( -7.615995547623000128, 20.00000000000000000, 0.0000000000000000000 ) ) ;
#120 = ADVANCED_FACE ( 'NONE', ( #223 ), #66, .F. ) ;
#121 = CC_DESIGN_PERSON_AND_ORGANIZATION_ASSIGNMENT ( #157, #201, ( #174 ) ) ;
#122 = COORDINATED_UNIVERSAL_TIME_OFFSET ( 5, 0, .BEHIND. ) ;
#123 = ORIENTED_EDGE ( 'NONE', *, *, #225, .T. ) ;
#124 = CARTESIAN_POINT ( 'NONE',  ( 0.0000000000000000000, 0.0000000000000000000, 0.0000000000000000000 ) ) ;
#125 = DATE_AND_TIME ( #226, #175 ) ;
#126 = ORIENTED_EDGE ( 'NONE', *, *, #196, .F. ) ;
#127 = DIRECTION ( 'NONE',  ( 0.0000000000000000000, -1.000000000000000000, 0.0000000000000000000 ) ) ;
#128 = DIRECTION ( 'NONE',  ( 1.000000000000000000, 0.0000000000000000000, 0.0000000000000000000 ) ) ;
#129 =( LENGTH_UNIT ( ) NAMED_UNIT ( * ) SI_UNIT ( .MILLI., .METRE. ) );
#130 = CONICAL_SURFACE ( 'NONE', #180, 19.50502525316999680, 0.7853981633974744803 ) ;
#131 = CARTESIAN_POINT ( 'NONE',  ( -8.110970294453000662, 0.0000000000000000000, 0.0000000000000000000 ) ) ;
#132 = CARTESIAN_POINT ( 'NONE',  ( -9.036242293347999777, 0.0000000000000000000, 0.0000000000000000000 ) ) ;
#133 = CARTESIAN_POINT ( 'NONE',  ( 0.0000000000000000000, 0.0000000000000000000, 0.0000000000000000000 ) ) ;
#134 = APPROVAL_PERSON_ORGANIZATION ( #233, #220, #152 ) ;
#135 = ORIENTED_EDGE ( 'NONE', *, *, #1, .F. ) ;
#136 = APPROVAL_PERSON_ORGANIZATION ( #160, #186, #165 ) ;
#137 = EDGE_LOOP ( 'NONE', ( #179, #234, #216, #218 ) ) ;
#138 = CC_DESIGN_PERSON_AND_ORGANIZATION_ASSIGNMENT ( #88, #221, ( #148 ) ) ;
#139 = ADVANCED_FACE ( 'NONE', ( #241 ), #58, .T. ) ;
#140 = PERSON_AND_ORGANIZATION ( #198, #147 ) ;
#141 = DIRECTION ( 'NONE',  ( 0.9979700333625319830, -0.06368526132777201088, 0.0000000000000000000 ) ) ;
#142 = CARTESIAN_POINT ( 'NONE',  ( -8.605945041284000396, -19.01005050634000071, 0.0000000000000000000 ) ) ;
#143 = EDGE_LOOP ( 'NONE', ( #123, #197, #83, #169 ) ) ;
#144 = CARTESIAN_POINT ( 'NONE',  ( 0.0000000000000000000, -20.00000000000000000, 0.0000000000000000000 ) ) ;
#145 = VECTOR ( 'NONE', #73, 1000.000000000000114 ) ;
#146 = CARTESIAN_POINT ( 'NONE',  ( -8.110970294453000662, 0.0000000000000000000, 0.0000000000000000000 ) ) ;
#147 = ORGANIZATION ( 'UNSPECIFIED', 'UNSPECIFIED', '' ) ;
#148 = SECURITY_CLASSIFICATION ( '', '', #77 ) ;
#149 = APPLICATION_PROTOCOL_DEFINITION ( 'international standard', 'config_control_design', 1994, #11 ) ;
#150 = ORIENTED_EDGE ( 'NONE', *, *, #91, .T. ) ;
#151 = DIRECTION ( 'NONE',  ( 0.0000000000000000000, -1.000000000000000000, 0.0000000000000000000 ) ) ;
#152 = APPROVAL_ROLE ( '' ) ;
#153 = AXIS2_PLACEMENT_3D ( 'NONE', #132, #163, #151 ) ;
#154 = DESIGN_CONTEXT ( 'detailed design', #32, 'design' ) ;
#155 = PERSON_AND_ORGANIZATION ( #198, #147 ) ;
#156 = LINE ( 'NONE', #214, #31 ) ;
#157 = PERSON_AND_ORGANIZATION ( #198, #147 ) ;
#158 = AXIS2_PLACEMENT_3D ( 'NONE', #23, #5, #141 ) ;
#159 = DIRECTION ( 'NONE',  ( -1.000000000000000000, 0.0000000000000000000, 0.0000000000000000000 ) ) ;
#160 = PERSON_AND_ORGANIZATION ( #198, #147 ) ;
#161 = DIRECTION ( 'NONE',  ( 0.0000000000000000000, 0.0000000000000000000, -1.000000000000000000 ) ) ;
#162 = PRODUCT_DEFINITION ( 'UNKNOWN', '', #7, #154 ) ;
#163 = DIRECTION ( 'NONE',  ( 1.000000000000000000, 0.0000000000000000000, 0.0000000000000000000 ) ) ;
#164 = CARTESIAN_POINT ( 'NONE',  ( -8.605945041284000396, 19.01005050634000071, 0.0000000000000000000 ) ) ;
#165 = APPROVAL_ROLE ( '' ) ;
#166 = LINE ( 'NONE', #229, #93 ) ;
#167 = EDGE_LOOP ( 'NONE', ( #224, #227 ) ) ;
#168 = LOCAL_TIME ( 8, 40, 36.00000000000000000, #208 ) ;
#169 = ORIENTED_EDGE ( 'NONE', *, *, #1, .T. ) ;
#170 = LOCAL_TIME ( 8, 40, 36.00000000000000000, #99 ) ;
#171 = CARTESIAN_POINT ( 'NONE',  ( -7.615995547623000128, -20.00000000000000000, 0.0000000000000000000 ) ) ;
#172 = PERSON_AND_ORGANIZATION ( #198, #147 ) ;
#173 = VERTEX_POINT ( 'NONE', #164 ) ;
#174 = PRODUCT ( 'Web Model 11535_11535', 'Web Model 11535_11535', '', ( #72 ) ) ;
#175 = LOCAL_TIME ( 8, 40, 36.00000000000000000, #36 ) ;
#176 = DIRECTION ( 'NONE',  ( -1.000000000000000000, 0.0000000000000000000, 0.0000000000000000000 ) ) ;
#177 = ORIENTED_EDGE ( 'NONE', *, *, #79, .F. ) ;
#178 = DATE_AND_TIME ( #230, #187 ) ;
#179 = ORIENTED_EDGE ( 'NONE', *, *, #209, .T. ) ;
#180 = AXIS2_PLACEMENT_3D ( 'NONE', #146, #95, #75 ) ;
#181 = APPROVAL_STATUS ( 'not_yet_approved' ) ;
#182 = CARTESIAN_POINT ( 'NONE',  ( 0.0000000000000000000, 0.0000000000000000000, 0.0000000000000000000 ) ) ;
#183 = PRODUCT_RELATED_PRODUCT_CATEGORY ( 'detail', '', ( #174 ) ) ;
#184 = PERSON_AND_ORGANIZATION ( #198, #147 ) ;
#185 = PERSON_AND_ORGANIZATION_ROLE ( 'creator' ) ;
#186 = APPROVAL ( #202, 'UNSPECIFIED' ) ;
#187 = LOCAL_TIME ( 8, 40, 36.00000000000000000, #106 ) ;
#188 = SPHERICAL_SURFACE ( 'NONE', #29, 298.5000000000000000 ) ;
#189 = ADVANCED_FACE ( 'NONE', ( #17 ), #210, .T. ) ;
#190 = ORIENTED_EDGE ( 'NONE', *, *, #209, .F. ) ;
#191 = ADVANCED_FACE ( 'NONE', ( #44 ), #130, .T. ) ;
#192 = CARTESIAN_POINT ( 'NONE',  ( -9.036242293347999777, 0.0000000000000000000, 0.0000000000000000000 ) ) ;
#193 = ADVANCED_BREP_SHAPE_REPRESENTATION ( 'Web Model 11535_11535', ( #206, #56 ), #3 ) ;
#194 = DATE_AND_TIME ( #112, #168 ) ;
#195 = DIRECTION ( 'NONE',  ( -0.7071067811863974706, -0.7071067811866975639, 0.0000000000000000000 ) ) ;
#196 = EDGE_CURVE ( 'NONE', #173, #59, #204, .T. ) ;
#197 = ORIENTED_EDGE ( 'NONE', *, *, #222, .F. ) ;
#198 = PERSON ( 'UNSPECIFIED', 'UNSPECIFIED', 'UNSPECIFIED', ('UNSPECIFIED'), ('UNSPECIFIED'), ('UNSPECIFIED') ) ;
#199 = DIRECTION ( 'NONE',  ( 1.000000000000000000, 0.0000000000000000000, 0.0000000000000000000 ) ) ;
#200 = CIRCLE ( 'NONE', #89, 19.01005050634000071 ) ;
#201 = PERSON_AND_ORGANIZATION_ROLE ( 'design_owner' ) ;
#202 = APPROVAL_STATUS ( 'not_yet_approved' ) ;
#203 = APPROVAL_ROLE ( '' ) ;
#204 = CIRCLE ( 'NONE', #76, 19.01005050634000071 ) ;
#205 = EDGE_LOOP ( 'NONE', ( #150, #80, #126, #135 ) ) ;
#206 = MANIFOLD_SOLID_BREP ( 'Web Model 11535.stp', #231 ) ;
#207 = DATE_TIME_ROLE ( 'classification_date' ) ;
#208 = COORDINATED_UNIVERSAL_TIME_OFFSET ( 5, 0, .BEHIND. ) ;
#209 = EDGE_CURVE ( 'NONE', #94, #110, #24, .T. ) ;
#210 = CONICAL_SURFACE ( 'NONE', #105, 19.50502525316999680, 0.7853981633974744803 ) ;
#211 = ADVANCED_FACE ( 'NONE', ( #237 ), #188, .F. ) ;
#212 = EDGE_CURVE ( 'NONE', #9, #74, #116, .T. ) ;
#213 = CARTESIAN_POINT ( 'NONE',  ( 0.0000000000000000000, 20.00000000000000000, 0.0000000000000000000 ) ) ;
#214 = CARTESIAN_POINT ( 'NONE',  ( -7.615995547623000128, 20.00000000000000000, 0.0000000000000000000 ) ) ;
#215 = CALENDAR_DATE ( 2019, 17, 12 ) ;
#216 = ORIENTED_EDGE ( 'NONE', *, *, #91, .F. ) ;
#217 = DIRECTION ( 'NONE',  ( 1.000000000000000000, 0.0000000000000000000, 0.0000000000000000000 ) ) ;
#218 = ORIENTED_EDGE ( 'NONE', *, *, #38, .F. ) ;
#219 = DIRECTION ( 'NONE',  ( 0.0000000000000000000, 1.000000000000000000, 0.0000000000000000000 ) ) ;
#220 = APPROVAL ( #100, 'UNSPECIFIED' ) ;
#221 = PERSON_AND_ORGANIZATION_ROLE ( 'classification_officer' ) ;
#222 = EDGE_CURVE ( 'NONE', #74, #59, #101, .T. ) ;
#223 = FACE_OUTER_BOUND ( 'NONE', #37, .T. ) ;
#224 = ORIENTED_EDGE ( 'NONE', *, *, #196, .T. ) ;
#225 = EDGE_CURVE ( 'NONE', #173, #59, #200, .T. ) ;
#226 = CALENDAR_DATE ( 2019, 17, 12 ) ;
#227 = ORIENTED_EDGE ( 'NONE', *, *, #35, .T. ) ;
#228 = CC_DESIGN_APPROVAL ( #220, ( #148 ) ) ;
#229 = CARTESIAN_POINT ( 'NONE',  ( 0.0000000000000000000, 20.00000000000000000, 0.0000000000000000000 ) ) ;
#230 = CALENDAR_DATE ( 2019, 17, 12 ) ;
#231 = CLOSED_SHELL ( 'NONE', ( #189, #191, #211, #120, #63, #139, #42 ) ) ;
#232 = AXIS2_PLACEMENT_3D ( 'NONE', #182, #71, #96 ) ;
#233 = PERSON_AND_ORGANIZATION ( #198, #147 ) ;
#234 = ORIENTED_EDGE ( 'NONE', *, *, #79, .T. ) ;
#235 = CARTESIAN_POINT ( 'NONE',  ( -306.5000000000000000, 0.0000000000000000000, 0.0000000000000000000 ) ) ;
#236 = CC_DESIGN_APPROVAL ( #186, ( #162 ) ) ;
#237 = FACE_OUTER_BOUND ( 'NONE', #167, .T. ) ;
#238 = DIRECTION ( 'NONE',  ( 0.0000000000000000000, 1.000000000000000000, 0.0000000000000000000 ) ) ;
#239 =( NAMED_UNIT ( * ) SI_UNIT ( $, .STERADIAN. ) SOLID_ANGLE_UNIT ( ) );
#240 = CARTESIAN_POINT ( 'NONE',  ( -8.605945041284000396, 0.0000000000000000000, 0.0000000000000000000 ) ) ;
#241 = FACE_OUTER_BOUND ( 'NONE', #4, .T. ) ;
ENDSEC;
END-ISO-10303-21;
