ISO-10303-21;
HEADER;
FILE_DESCRIPTION (( 'STEP AP203' ),
    '1' );
FILE_NAME ('Web Model 43367_20642.step',
    '2022-03-16T13:54:05',
    ( '' ),
    ( '' ),
    'SwSTEP 2.0',
    'SolidWorks 2021',
    '' );
FILE_SCHEMA (( 'CONFIG_CONTROL_DESIGN' ));
ENDSEC;

DATA;
#1 = EDGE_LOOP ( 'NONE', ( #32, #114 ) ) ;
#2 = EDGE_CURVE ( 'NONE', #33, #90, #38, .T. ) ;
#3 = CIRCLE ( 'NONE', #125, 7.500000000000000000 ) ;
#4 = FACE_OUTER_BOUND ( 'NONE', #137, .T. ) ;
#5 = CARTESIAN_POINT ( 'NONE',  ( 0.000000000000000000, 0.000000000000000000, 0.5000000000000000000 ) ) ;
#6 = LOCAL_TIME ( 9, 54, 5.000000000000000000, #81 ) ;
#7 = CARTESIAN_POINT ( 'NONE',  ( 0.000000000000000000, 0.000000000000000000, 0.000000000000000000 ) ) ;
#8 = DIRECTION ( 'NONE',  ( 0.000000000000000000, 0.000000000000000000, 1.000000000000000000 ) ) ;
#9 = DIRECTION ( 'NONE',  ( -0.000000000000000000, -0.000000000000000000, -1.000000000000000000 ) ) ;
#10 = AXIS2_PLACEMENT_3D ( 'NONE', #26, #124, #159 ) ;
#11 = LOCAL_TIME ( 9, 54, 5.000000000000000000, #146 ) ;
#12 = MECHANICAL_CONTEXT ( 'NONE', #148, 'mechanical' ) ;
#13 = COORDINATED_UNIVERSAL_TIME_OFFSET ( 5, 0, .BEHIND. ) ;
#14 = APPLICATION_PROTOCOL_DEFINITION ( 'international standard', 'config_control_design', 1994, #156 ) ;
#15 = APPROVAL_DATE_TIME ( #79, #74 ) ;
#16 = ORIENTED_EDGE ( 'NONE', *, *, #2, .T. ) ;
#17 = CC_DESIGN_SECURITY_CLASSIFICATION ( #167, ( #127 ) ) ;
#18 = DIRECTION ( 'NONE',  ( 0.000000000000000000, 0.000000000000000000, 1.000000000000000000 ) ) ;
#19 = ADVANCED_FACE ( 'NONE', ( #139 ), #73, .T. ) ;
#20 = CARTESIAN_POINT ( 'NONE',  ( 7.500000000000000000, 9.184850993605147944E-16, 0.5000000000000000000 ) ) ;
#21 = ADVANCED_BREP_SHAPE_REPRESENTATION ( 'Web Model 43367_20642', ( #59, #10 ), #150 ) ;
#22 = DIRECTION ( 'NONE',  ( 0.000000000000000000, 0.000000000000000000, 1.000000000000000000 ) ) ;
#23 = DIRECTION ( 'NONE',  ( -0.000000000000000000, -0.000000000000000000, -1.000000000000000000 ) ) ;
#24 = COORDINATED_UNIVERSAL_TIME_OFFSET ( 5, 0, .BEHIND. ) ;
#25 = PERSON_AND_ORGANIZATION ( #43, #145 ) ;
#26 = CARTESIAN_POINT ( 'NONE',  ( 0.000000000000000000, 0.000000000000000000, 0.000000000000000000 ) ) ;
#27 = PERSON_AND_ORGANIZATION ( #43, #145 ) ;
#28 = PERSON_AND_ORGANIZATION ( #43, #145 ) ;
#29 = CIRCLE ( 'NONE', #42, 7.500000000000000000 ) ;
#30 = PRODUCT ( 'Web Model 43367_20642', 'Web Model 43367_20642', '', ( #12 ) ) ;
#31 = APPROVAL_PERSON_ORGANIZATION ( #173, #74, #135 ) ;
#32 = ORIENTED_EDGE ( 'NONE', *, *, #115, .F. ) ;
#33 = VERTEX_POINT ( 'NONE', #130 ) ;
#34 = APPLICATION_PROTOCOL_DEFINITION ( 'international standard', 'config_control_design', 1994, #148 ) ;
#35 = CARTESIAN_POINT ( 'NONE',  ( 7.500000000000000000, 9.184850993605147944E-16, 0.000000000000000000 ) ) ;
#36 = DIRECTION ( 'NONE',  ( -1.000000000000000000, 0.000000000000000000, 0.000000000000000000 ) ) ;
#37 = CARTESIAN_POINT ( 'NONE',  ( -7.500000000000000000, 0.000000000000000000, 0.5000000000000000000 ) ) ;
#38 = LINE ( 'NONE', #20, #151 ) ;
#39 = SECURITY_CLASSIFICATION_LEVEL ( 'unclassified' ) ;
#40 = PERSON_AND_ORGANIZATION_ROLE ( 'design_owner' ) ;
#41 = DATE_AND_TIME ( #68, #77 ) ;
#42 = AXIS2_PLACEMENT_3D ( 'NONE', #117, #8, #75 ) ;
#43 = PERSON ( 'UNSPECIFIED', 'UNSPECIFIED', 'UNSPECIFIED', ('UNSPECIFIED'), ('UNSPECIFIED'), ('UNSPECIFIED') ) ;
#44 = ORIENTED_EDGE ( 'NONE', *, *, #169, .T. ) ;
#45 = ORIENTED_EDGE ( 'NONE', *, *, #112, .F. ) ;
#46 = ORIENTED_EDGE ( 'NONE', *, *, #169, .F. ) ;
#47 = LOCAL_TIME ( 9, 54, 5.000000000000000000, #24 ) ;
#48 = DIRECTION ( 'NONE',  ( -0.000000000000000000, -0.000000000000000000, -1.000000000000000000 ) ) ;
#49 = CARTESIAN_POINT ( 'NONE',  ( 0.000000000000000000, 0.000000000000000000, 0.000000000000000000 ) ) ;
#50 = CC_DESIGN_DATE_AND_TIME_ASSIGNMENT ( #143, #144, ( #97 ) ) ;
#51 =( NAMED_UNIT ( * ) PLANE_ANGLE_UNIT ( ) SI_UNIT ( $, .RADIAN. ) );
#52 = APPROVAL_DATE_TIME ( #96, #60 ) ;
#53 = AXIS2_PLACEMENT_3D ( 'NONE', #63, #65, #118 ) ;
#54 = CALENDAR_DATE ( 2022, 16, 3 ) ;
#55 = PERSON_AND_ORGANIZATION ( #43, #145 ) ;
#56 = AXIS2_PLACEMENT_3D ( 'NONE', #102, #48, #36 ) ;
#57 = CC_DESIGN_APPROVAL ( #74, ( #167 ) ) ;
#58 = ORIENTED_EDGE ( 'NONE', *, *, #112, .T. ) ;
#59 = MANIFOLD_SOLID_BREP ( 'Boss-Extrude1', #93 ) ;
#60 = APPROVAL ( #121, 'UNSPECIFIED' ) ;
#61 = PLANE ( 'NONE',  #105 ) ;
#62 = DIRECTION ( 'NONE',  ( 1.000000000000000000, 0.000000000000000000, 0.000000000000000000 ) ) ;
#63 = CARTESIAN_POINT ( 'NONE',  ( 0.000000000000000000, 0.000000000000000000, 0.5000000000000000000 ) ) ;
#64 = CC_DESIGN_PERSON_AND_ORGANIZATION_ASSIGNMENT ( #27, #133, ( #97 ) ) ;
#65 = DIRECTION ( 'NONE',  ( 0.000000000000000000, 0.000000000000000000, 1.000000000000000000 ) ) ;
#66 = ADVANCED_FACE ( 'NONE', ( #4 ), #158, .T. ) ;
#67 = PERSON_AND_ORGANIZATION ( #43, #145 ) ;
#68 = CALENDAR_DATE ( 2022, 16, 3 ) ;
#69 = UNCERTAINTY_MEASURE_WITH_UNIT (LENGTH_MEASURE( 1.000000000000000082E-05 ), #142, 'distance_accuracy_value', 'NONE');
#70 = APPROVAL_PERSON_ORGANIZATION ( #28, #60, #147 ) ;
#71 = CC_DESIGN_APPROVAL ( #107, ( #127 ) ) ;
#72 = CARTESIAN_POINT ( 'NONE',  ( 0.000000000000000000, 0.000000000000000000, 0.5000000000000000000 ) ) ;
#73 = CYLINDRICAL_SURFACE ( 'NONE', #76, 7.500000000000000000 ) ;
#74 = APPROVAL ( #149, 'UNSPECIFIED' ) ;
#75 = DIRECTION ( 'NONE',  ( 1.000000000000000000, 0.000000000000000000, 0.000000000000000000 ) ) ;
#76 = AXIS2_PLACEMENT_3D ( 'NONE', #155, #23, #92 ) ;
#77 = LOCAL_TIME ( 9, 54, 5.000000000000000000, #13 ) ;
#78 = LINE ( 'NONE', #37, #113 ) ;
#79 = DATE_AND_TIME ( #160, #11 ) ;
#80 = AXIS2_PLACEMENT_3D ( 'NONE', #5, #18, #154 ) ;
#81 = COORDINATED_UNIVERSAL_TIME_OFFSET ( 5, 0, .BEHIND. ) ;
#82 = SHAPE_DEFINITION_REPRESENTATION ( #162, #21 ) ;
#83 = DESIGN_CONTEXT ( 'detailed design', #156, 'design' ) ;
#84 = PERSON_AND_ORGANIZATION ( #43, #145 ) ;
#85 = CC_DESIGN_PERSON_AND_ORGANIZATION_ASSIGNMENT ( #84, #40, ( #30 ) ) ;
#86 = CIRCLE ( 'NONE', #80, 7.500000000000000000 ) ;
#87 = DATE_TIME_ROLE ( 'classification_date' ) ;
#88 = CC_DESIGN_PERSON_AND_ORGANIZATION_ASSIGNMENT ( #55, #108, ( #127 ) ) ;
#89 = CC_DESIGN_APPROVAL ( #60, ( #97 ) ) ;
#90 = VERTEX_POINT ( 'NONE', #35 ) ;
#91 = CC_DESIGN_DATE_AND_TIME_ASSIGNMENT ( #41, #87, ( #167 ) ) ;
#92 = DIRECTION ( 'NONE',  ( -1.000000000000000000, 0.000000000000000000, 0.000000000000000000 ) ) ;
#93 = CLOSED_SHELL ( 'NONE', ( #136, #19, #66, #129 ) ) ;
#94 = FACE_OUTER_BOUND ( 'NONE', #1, .T. ) ;
#95 = LOCAL_TIME ( 9, 54, 5.000000000000000000, #175 ) ;
#96 = DATE_AND_TIME ( #123, #95 ) ;
#97 = PRODUCT_DEFINITION ( 'UNKNOWN', '', #127, #83 ) ;
#98 = CALENDAR_DATE ( 2022, 16, 3 ) ;
#99 = ORIENTED_EDGE ( 'NONE', *, *, #2, .F. ) ;
#100 = EDGE_CURVE ( 'NONE', #152, #153, #78, .T. ) ;
#101 = DIRECTION ( 'NONE',  ( 0.000000000000000000, 0.000000000000000000, 1.000000000000000000 ) ) ;
#102 = CARTESIAN_POINT ( 'NONE',  ( 0.000000000000000000, 0.000000000000000000, 0.5000000000000000000 ) ) ;
#103 = DIRECTION ( 'NONE',  ( 0.000000000000000000, 0.000000000000000000, 1.000000000000000000 ) ) ;
#104 =( NAMED_UNIT ( * ) SI_UNIT ( $, .STERADIAN. ) SOLID_ANGLE_UNIT ( ) );
#105 = AXIS2_PLACEMENT_3D ( 'NONE', #49, #22, #116 ) ;
#106 = DIRECTION ( 'NONE',  ( -0.000000000000000000, -0.000000000000000000, -1.000000000000000000 ) ) ;
#107 = APPROVAL ( #172, 'UNSPECIFIED' ) ;
#108 = PERSON_AND_ORGANIZATION_ROLE ( 'design_supplier' ) ;
#109 = APPROVAL_DATE_TIME ( #120, #107 ) ;
#110 = APPROVAL_ROLE ( '' ) ;
#111 = ORIENTED_EDGE ( 'NONE', *, *, #100, .F. ) ;
#112 = EDGE_CURVE ( 'NONE', #33, #152, #86, .T. ) ;
#113 = VECTOR ( 'NONE', #106, 1000.000000000000000 ) ;
#114 = ORIENTED_EDGE ( 'NONE', *, *, #132, .F. ) ;
#115 = EDGE_CURVE ( 'NONE', #153, #90, #3, .T. ) ;
#116 = DIRECTION ( 'NONE',  ( 1.000000000000000000, 0.000000000000000000, -0.000000000000000000 ) ) ;
#117 = CARTESIAN_POINT ( 'NONE',  ( 0.000000000000000000, 0.000000000000000000, 0.000000000000000000 ) ) ;
#118 = DIRECTION ( 'NONE',  ( 1.000000000000000000, 0.000000000000000000, 0.000000000000000000 ) ) ;
#119 = CYLINDRICAL_SURFACE ( 'NONE', #56, 7.500000000000000000 ) ;
#120 = DATE_AND_TIME ( #54, #47 ) ;
#121 = APPROVAL_STATUS ( 'not_yet_approved' ) ;
#122 = CC_DESIGN_PERSON_AND_ORGANIZATION_ASSIGNMENT ( #174, #134, ( #127 ) ) ;
#123 = CALENDAR_DATE ( 2022, 16, 3 ) ;
#124 = DIRECTION ( 'NONE',  ( 0.000000000000000000, 0.000000000000000000, 1.000000000000000000 ) ) ;
#125 = AXIS2_PLACEMENT_3D ( 'NONE', #7, #101, #62 ) ;
#126 = CIRCLE ( 'NONE', #53, 7.500000000000000000 ) ;
#127 = PRODUCT_DEFINITION_FORMATION_WITH_SPECIFIED_SOURCE ( 'ANY', '', #30, .NOT_KNOWN. ) ;
#128 = ORIENTED_EDGE ( 'NONE', *, *, #132, .T. ) ;
#129 = ADVANCED_FACE ( 'NONE', ( #94 ), #61, .F. ) ;
#130 = CARTESIAN_POINT ( 'NONE',  ( 7.500000000000000000, 9.184850993605147944E-16, 0.5000000000000000000 ) ) ;
#131 = CARTESIAN_POINT ( 'NONE',  ( -7.500000000000000000, 0.000000000000000000, 0.5000000000000000000 ) ) ;
#132 = EDGE_CURVE ( 'NONE', #90, #153, #29, .T. ) ;
#133 = PERSON_AND_ORGANIZATION_ROLE ( 'creator' ) ;
#134 = PERSON_AND_ORGANIZATION_ROLE ( 'creator' ) ;
#135 = APPROVAL_ROLE ( '' ) ;
#136 = ADVANCED_FACE ( 'NONE', ( #140 ), #119, .T. ) ;
#137 = EDGE_LOOP ( 'NONE', ( #44, #58 ) ) ;
#138 = AXIS2_PLACEMENT_3D ( 'NONE', #72, #103, #157 ) ;
#139 = FACE_OUTER_BOUND ( 'NONE', #171, .T. ) ;
#140 = FACE_OUTER_BOUND ( 'NONE', #168, .T. ) ;
#141 = PRODUCT_RELATED_PRODUCT_CATEGORY ( 'detail', '', ( #30 ) ) ;
#142 =( LENGTH_UNIT ( ) NAMED_UNIT ( * ) SI_UNIT ( .MILLI., .METRE. ) );
#143 = DATE_AND_TIME ( #98, #6 ) ;
#144 = DATE_TIME_ROLE ( 'creation_date' ) ;
#145 = ORGANIZATION ( 'UNSPECIFIED', 'UNSPECIFIED', '' ) ;
#146 = COORDINATED_UNIVERSAL_TIME_OFFSET ( 5, 0, .BEHIND. ) ;
#147 = APPROVAL_ROLE ( '' ) ;
#148 = APPLICATION_CONTEXT ( 'configuration controlled 3d designs of mechanical parts and assemblies' ) ;
#149 = APPROVAL_STATUS ( 'not_yet_approved' ) ;
#150 =( GEOMETRIC_REPRESENTATION_CONTEXT ( 3 ) GLOBAL_UNCERTAINTY_ASSIGNED_CONTEXT ( ( #69 ) ) GLOBAL_UNIT_ASSIGNED_CONTEXT ( ( #142, #51, #104 ) ) REPRESENTATION_CONTEXT ( 'NONE', 'WORKASPACE' ) );
#151 = VECTOR ( 'NONE', #9, 1000.000000000000000 ) ;
#152 = VERTEX_POINT ( 'NONE', #131 ) ;
#153 = VERTEX_POINT ( 'NONE', #170 ) ;
#154 = DIRECTION ( 'NONE',  ( 1.000000000000000000, 0.000000000000000000, 0.000000000000000000 ) ) ;
#155 = CARTESIAN_POINT ( 'NONE',  ( 0.000000000000000000, 0.000000000000000000, 0.5000000000000000000 ) ) ;
#156 = APPLICATION_CONTEXT ( 'configuration controlled 3d designs of mechanical parts and assemblies' ) ;
#157 = DIRECTION ( 'NONE',  ( 1.000000000000000000, 0.000000000000000000, -0.000000000000000000 ) ) ;
#158 = PLANE ( 'NONE',  #138 ) ;
#159 = DIRECTION ( 'NONE',  ( 1.000000000000000000, 0.000000000000000000, 0.000000000000000000 ) ) ;
#160 = CALENDAR_DATE ( 2022, 16, 3 ) ;
#161 = PERSON_AND_ORGANIZATION_ROLE ( 'classification_officer' ) ;
#162 = PRODUCT_DEFINITION_SHAPE ( 'NONE', 'NONE',  #97 ) ;
#163 = APPROVAL_PERSON_ORGANIZATION ( #67, #107, #110 ) ;
#164 = CC_DESIGN_PERSON_AND_ORGANIZATION_ASSIGNMENT ( #25, #161, ( #167 ) ) ;
#165 = ORIENTED_EDGE ( 'NONE', *, *, #100, .T. ) ;
#166 = ORIENTED_EDGE ( 'NONE', *, *, #115, .T. ) ;
#167 = SECURITY_CLASSIFICATION ( '', '', #39 ) ;
#168 = EDGE_LOOP ( 'NONE', ( #45, #16, #128, #111 ) ) ;
#169 = EDGE_CURVE ( 'NONE', #152, #33, #126, .T. ) ;
#170 = CARTESIAN_POINT ( 'NONE',  ( -7.500000000000000000, 0.000000000000000000, 0.000000000000000000 ) ) ;
#171 = EDGE_LOOP ( 'NONE', ( #99, #46, #165, #166 ) ) ;
#172 = APPROVAL_STATUS ( 'not_yet_approved' ) ;
#173 = PERSON_AND_ORGANIZATION ( #43, #145 ) ;
#174 = PERSON_AND_ORGANIZATION ( #43, #145 ) ;
#175 = COORDINATED_UNIVERSAL_TIME_OFFSET ( 5, 0, .BEHIND. ) ;
ENDSEC;
END-ISO-10303-21;
