ISO-10303-21;
HEADER;
FILE_DESCRIPTION (( 'STEP AP203' ),
    '1' );
FILE_NAME ('Web Model 46457_18708.step',
    '2021-07-13T13:38:25',
    ( '' ),
    ( '' ),
    'SwSTEP 2.0',
    'SolidWorks 2018',
    '' );
FILE_SCHEMA (( 'CONFIG_CONTROL_DESIGN' ));
ENDSEC;

DATA;
#1 = CC_DESIGN_PERSON_AND_ORGANIZATION_ASSIGNMENT ( #84, #53, ( #171 ) ) ;
#2 = CALENDAR_DATE ( 2021, 13, 7 ) ;
#3 = DIRECTION ( 'NONE',  ( -1.000000000000000000, -0.000000000000000000, -0.000000000000000000 ) ) ;
#4 = MECHANICAL_CONTEXT ( 'NONE', #32, 'mechanical' ) ;
#5 = DIRECTION ( 'NONE',  ( -1.000000000000000000, -0.000000000000000000, -0.000000000000000000 ) ) ;
#6 = DIRECTION ( 'NONE',  ( 1.000000000000000000, 0.000000000000000000, 0.000000000000000000 ) ) ;
#7 = CARTESIAN_POINT ( 'NONE',  ( 0.7500000000000000000, 0.000000000000000000, 0.000000000000000000 ) ) ;
#8 = APPROVAL_DATE_TIME ( #88, #45 ) ;
#9 = CLOSED_SHELL ( 'NONE', ( #117, #150, #63, #118 ) ) ;
#10 = CC_DESIGN_PERSON_AND_ORGANIZATION_ASSIGNMENT ( #96, #122, ( #130 ) ) ;
#11 = CALENDAR_DATE ( 2021, 13, 7 ) ;
#12 = ORIENTED_EDGE ( 'NONE', *, *, #46, .F. ) ;
#13 = CYLINDRICAL_SURFACE ( 'NONE', #94, 6.349999999999999645 ) ;
#14 = APPLICATION_CONTEXT ( 'configuration controlled 3d designs of mechanical parts and assemblies' ) ;
#15 = AXIS2_PLACEMENT_3D ( 'NONE', #106, #146, #71 ) ;
#16 = PERSON_AND_ORGANIZATION_ROLE ( 'design_owner' ) ;
#17 = APPROVAL_PERSON_ORGANIZATION ( #140, #83, #155 ) ;
#18 = FACE_OUTER_BOUND ( 'NONE', #142, .T. ) ;
#19 = DIRECTION ( 'NONE',  ( 0.000000000000000000, 0.000000000000000000, -1.000000000000000000 ) ) ;
#20 = EDGE_CURVE ( 'NONE', #175, #98, #105, .T. ) ;
#21 = ORIENTED_EDGE ( 'NONE', *, *, #46, .T. ) ;
#22 = DIRECTION ( 'NONE',  ( 1.000000000000000000, 0.000000000000000000, 0.000000000000000000 ) ) ;
#23 = COORDINATED_UNIVERSAL_TIME_OFFSET ( 5, 0, .BEHIND. ) ;
#24 = AXIS2_PLACEMENT_3D ( 'NONE', #56, #60, #135 ) ;
#25 = SHAPE_DEFINITION_REPRESENTATION ( #31, #119 ) ;
#26 = CC_DESIGN_PERSON_AND_ORGANIZATION_ASSIGNMENT ( #107, #168, ( #72 ) ) ;
#27 = MANIFOLD_SOLID_BREP ( 'Boss-Extrude1', #9 ) ;
#28 = APPLICATION_PROTOCOL_DEFINITION ( 'international standard', 'config_control_design', 1994, #14 ) ;
#29 = PERSON_AND_ORGANIZATION_ROLE ( 'design_supplier' ) ;
#30 = AXIS2_PLACEMENT_3D ( 'NONE', #41, #86, #19 ) ;
#31 = PRODUCT_DEFINITION_SHAPE ( 'NONE', 'NONE',  #171 ) ;
#32 = APPLICATION_CONTEXT ( 'configuration controlled 3d designs of mechanical parts and assemblies' ) ;
#33 = PERSON_AND_ORGANIZATION ( #38, #102 ) ;
#34 = FACE_OUTER_BOUND ( 'NONE', #166, .T. ) ;
#35 = CC_DESIGN_DATE_AND_TIME_ASSIGNMENT ( #127, #149, ( #72 ) ) ;
#36 = PRODUCT ( 'Web Model 46457_18708', 'Web Model 46457_18708', '', ( #4 ) ) ;
#37 = LOCAL_TIME ( 9, 38, 25.00000000000000000, #145 ) ;
#38 = PERSON ( 'UNSPECIFIED', 'UNSPECIFIED', 'UNSPECIFIED', ('UNSPECIFIED'), ('UNSPECIFIED'), ('UNSPECIFIED') ) ;
#39 = APPROVAL_STATUS ( 'not_yet_approved' ) ;
#40 = CC_DESIGN_APPROVAL ( #139, ( #171 ) ) ;
#41 = CARTESIAN_POINT ( 'NONE',  ( -0.7500000000000000000, 0.000000000000000000, 0.000000000000000000 ) ) ;
#42 = PLANE ( 'NONE',  #15 ) ;
#43 = CIRCLE ( 'NONE', #78, 6.349999999999999645 ) ;
#44 =( NAMED_UNIT ( * ) PLANE_ANGLE_UNIT ( ) SI_UNIT ( $, .RADIAN. ) );
#45 = APPROVAL ( #112, 'UNSPECIFIED' ) ;
#46 = EDGE_CURVE ( 'NONE', #98, #50, #125, .T. ) ;
#47 = VERTEX_POINT ( 'NONE', #70 ) ;
#48 = CC_DESIGN_PERSON_AND_ORGANIZATION_ASSIGNMENT ( #170, #29, ( #130 ) ) ;
#49 = DATE_AND_TIME ( #173, #104 ) ;
#50 = VERTEX_POINT ( 'NONE', #148 ) ;
#51 = EDGE_LOOP ( 'NONE', ( #69, #161, #21, #80 ) ) ;
#52 = LOCAL_TIME ( 9, 38, 25.00000000000000000, #59 ) ;
#53 = PERSON_AND_ORGANIZATION_ROLE ( 'creator' ) ;
#54 = APPROVAL_DATE_TIME ( #75, #139 ) ;
#55 = CARTESIAN_POINT ( 'NONE',  ( 0.7500000000000000000, 0.000000000000000000, 0.000000000000000000 ) ) ;
#56 = CARTESIAN_POINT ( 'NONE',  ( 0.000000000000000000, 0.000000000000000000, 0.000000000000000000 ) ) ;
#57 = AXIS2_PLACEMENT_3D ( 'NONE', #55, #5, #160 ) ;
#58 = DIRECTION ( 'NONE',  ( -1.000000000000000000, -0.000000000000000000, -0.000000000000000000 ) ) ;
#59 = COORDINATED_UNIVERSAL_TIME_OFFSET ( 5, 0, .BEHIND. ) ;
#60 = DIRECTION ( 'NONE',  ( 0.000000000000000000, 0.000000000000000000, 1.000000000000000000 ) ) ;
#61 = COORDINATED_UNIVERSAL_TIME_OFFSET ( 5, 0, .BEHIND. ) ;
#62 = EDGE_CURVE ( 'NONE', #47, #50, #91, .T. ) ;
#63 = ADVANCED_FACE ( 'NONE', ( #18 ), #42, .T. ) ;
#64 = APPROVAL_DATE_TIME ( #172, #83 ) ;
#65 = ORIENTED_EDGE ( 'NONE', *, *, #20, .T. ) ;
#66 = AXIS2_PLACEMENT_3D ( 'NONE', #128, #22, #81 ) ;
#67 = ORIENTED_EDGE ( 'NONE', *, *, #137, .T. ) ;
#68 = CIRCLE ( 'NONE', #103, 6.349999999999999645 ) ;
#69 = ORIENTED_EDGE ( 'NONE', *, *, #137, .F. ) ;
#70 = CARTESIAN_POINT ( 'NONE',  ( -0.7500000000000000000, 7.776507174585692163E-16, -6.349999999999999645 ) ) ;
#71 = DIRECTION ( 'NONE',  ( 0.000000000000000000, 0.000000000000000000, -1.000000000000000000 ) ) ;
#72 = SECURITY_CLASSIFICATION ( '', '', #133 ) ;
#73 = CARTESIAN_POINT ( 'NONE',  ( -0.7500000000000000000, 0.000000000000000000, 0.000000000000000000 ) ) ;
#74 = APPROVAL_STATUS ( 'not_yet_approved' ) ;
#75 = DATE_AND_TIME ( #167, #37 ) ;
#76 = PLANE ( 'NONE',  #30 ) ;
#77 = UNCERTAINTY_MEASURE_WITH_UNIT (LENGTH_MEASURE( 1.000000000000000082E-05 ), #109, 'distance_accuracy_value', 'NONE');
#78 = AXIS2_PLACEMENT_3D ( 'NONE', #158, #110, #132 ) ;
#79 = CYLINDRICAL_SURFACE ( 'NONE', #57, 6.349999999999999645 ) ;
#80 = ORIENTED_EDGE ( 'NONE', *, *, #165, .T. ) ;
#81 = DIRECTION ( 'NONE',  ( 0.000000000000000000, 0.000000000000000000, -1.000000000000000000 ) ) ;
#82 = LINE ( 'NONE', #85, #152 ) ;
#83 = APPROVAL ( #74, 'UNSPECIFIED' ) ;
#84 = PERSON_AND_ORGANIZATION ( #38, #102 ) ;
#85 = CARTESIAN_POINT ( 'NONE',  ( 0.7500000000000000000, 7.776507174585692163E-16, -6.349999999999999645 ) ) ;
#86 = DIRECTION ( 'NONE',  ( 1.000000000000000000, 0.000000000000000000, 0.000000000000000000 ) ) ;
#87 = DIRECTION ( 'NONE',  ( -1.000000000000000000, -0.000000000000000000, -0.000000000000000000 ) ) ;
#88 = DATE_AND_TIME ( #2, #52 ) ;
#89 = APPROVAL_PERSON_ORGANIZATION ( #33, #139, #143 ) ;
#90 = DATE_TIME_ROLE ( 'creation_date' ) ;
#91 = CIRCLE ( 'NONE', #113, 6.349999999999999645 ) ;
#92 = CARTESIAN_POINT ( 'NONE',  ( -0.7500000000000000000, 0.000000000000000000, 0.000000000000000000 ) ) ;
#93 = DESIGN_CONTEXT ( 'detailed design', #14, 'design' ) ;
#94 = AXIS2_PLACEMENT_3D ( 'NONE', #7, #58, #121 ) ;
#95 = FACE_OUTER_BOUND ( 'NONE', #164, .T. ) ;
#96 = PERSON_AND_ORGANIZATION ( #38, #102 ) ;
#97 = PRODUCT_RELATED_PRODUCT_CATEGORY ( 'detail', '', ( #36 ) ) ;
#98 = VERTEX_POINT ( 'NONE', #134 ) ;
#99 = CALENDAR_DATE ( 2021, 13, 7 ) ;
#100 = CC_DESIGN_APPROVAL ( #45, ( #72 ) ) ;
#101 = CC_DESIGN_APPROVAL ( #83, ( #130 ) ) ;
#102 = ORGANIZATION ( 'UNSPECIFIED', 'UNSPECIFIED', '' ) ;
#103 = AXIS2_PLACEMENT_3D ( 'NONE', #73, #108, #169 ) ;
#104 = LOCAL_TIME ( 9, 38, 25.00000000000000000, #116 ) ;
#105 = CIRCLE ( 'NONE', #66, 6.349999999999999645 ) ;
#106 = CARTESIAN_POINT ( 'NONE',  ( 0.7500000000000000000, 0.000000000000000000, 0.000000000000000000 ) ) ;
#107 = PERSON_AND_ORGANIZATION ( #38, #102 ) ;
#108 = DIRECTION ( 'NONE',  ( 1.000000000000000000, 0.000000000000000000, 0.000000000000000000 ) ) ;
#109 =( LENGTH_UNIT ( ) NAMED_UNIT ( * ) SI_UNIT ( .MILLI., .METRE. ) );
#110 = DIRECTION ( 'NONE',  ( 1.000000000000000000, 0.000000000000000000, 0.000000000000000000 ) ) ;
#111 = LOCAL_TIME ( 9, 38, 25.00000000000000000, #23 ) ;
#112 = APPROVAL_STATUS ( 'not_yet_approved' ) ;
#113 = AXIS2_PLACEMENT_3D ( 'NONE', #92, #6, #144 ) ;
#114 = VECTOR ( 'NONE', #87, 1000.000000000000000 ) ;
#115 = APPROVAL_ROLE ( '' ) ;
#116 = COORDINATED_UNIVERSAL_TIME_OFFSET ( 5, 0, .BEHIND. ) ;
#117 = ADVANCED_FACE ( 'NONE', ( #95 ), #79, .T. ) ;
#118 = ADVANCED_FACE ( 'NONE', ( #34 ), #76, .F. ) ;
#119 = ADVANCED_BREP_SHAPE_REPRESENTATION ( 'Web Model 46457_18708', ( #27, #24 ), #153 ) ;
#120 = EDGE_CURVE ( 'NONE', #98, #175, #43, .T. ) ;
#121 = DIRECTION ( 'NONE',  ( 0.000000000000000000, 0.000000000000000000, 1.000000000000000000 ) ) ;
#122 = PERSON_AND_ORGANIZATION_ROLE ( 'creator' ) ;
#123 = FACE_OUTER_BOUND ( 'NONE', #51, .T. ) ;
#124 = CARTESIAN_POINT ( 'NONE',  ( 0.7500000000000000000, 7.776507174585692163E-16, -6.349999999999999645 ) ) ;
#125 = LINE ( 'NONE', #129, #114 ) ;
#126 =( NAMED_UNIT ( * ) SI_UNIT ( $, .STERADIAN. ) SOLID_ANGLE_UNIT ( ) );
#127 = DATE_AND_TIME ( #99, #157 ) ;
#128 = CARTESIAN_POINT ( 'NONE',  ( 0.7500000000000000000, 0.000000000000000000, 0.000000000000000000 ) ) ;
#129 = CARTESIAN_POINT ( 'NONE',  ( 0.7500000000000000000, 0.000000000000000000, 6.349999999999999645 ) ) ;
#130 = PRODUCT_DEFINITION_FORMATION_WITH_SPECIFIED_SOURCE ( 'ANY', '', #36, .NOT_KNOWN. ) ;
#131 = PERSON_AND_ORGANIZATION ( #38, #102 ) ;
#132 = DIRECTION ( 'NONE',  ( 0.000000000000000000, 0.000000000000000000, -1.000000000000000000 ) ) ;
#133 = SECURITY_CLASSIFICATION_LEVEL ( 'unclassified' ) ;
#134 = CARTESIAN_POINT ( 'NONE',  ( 0.7500000000000000000, 0.000000000000000000, 6.349999999999999645 ) ) ;
#135 = DIRECTION ( 'NONE',  ( 1.000000000000000000, 0.000000000000000000, 0.000000000000000000 ) ) ;
#136 = CC_DESIGN_DATE_AND_TIME_ASSIGNMENT ( #49, #90, ( #171 ) ) ;
#137 = EDGE_CURVE ( 'NONE', #175, #47, #82, .T. ) ;
#138 = APPROVAL_PERSON_ORGANIZATION ( #162, #45, #115 ) ;
#139 = APPROVAL ( #39, 'UNSPECIFIED' ) ;
#140 = PERSON_AND_ORGANIZATION ( #38, #102 ) ;
#141 = ORIENTED_EDGE ( 'NONE', *, *, #62, .T. ) ;
#142 = EDGE_LOOP ( 'NONE', ( #174, #65 ) ) ;
#143 = APPROVAL_ROLE ( '' ) ;
#144 = DIRECTION ( 'NONE',  ( 0.000000000000000000, 0.000000000000000000, -1.000000000000000000 ) ) ;
#145 = COORDINATED_UNIVERSAL_TIME_OFFSET ( 5, 0, .BEHIND. ) ;
#146 = DIRECTION ( 'NONE',  ( 1.000000000000000000, 0.000000000000000000, 0.000000000000000000 ) ) ;
#147 = ORIENTED_EDGE ( 'NONE', *, *, #165, .F. ) ;
#148 = CARTESIAN_POINT ( 'NONE',  ( -0.7500000000000000000, 0.000000000000000000, 6.349999999999999645 ) ) ;
#149 = DATE_TIME_ROLE ( 'classification_date' ) ;
#150 = ADVANCED_FACE ( 'NONE', ( #123 ), #13, .T. ) ;
#151 = CC_DESIGN_SECURITY_CLASSIFICATION ( #72, ( #130 ) ) ;
#152 = VECTOR ( 'NONE', #3, 1000.000000000000000 ) ;
#153 =( GEOMETRIC_REPRESENTATION_CONTEXT ( 3 ) GLOBAL_UNCERTAINTY_ASSIGNED_CONTEXT ( ( #77 ) ) GLOBAL_UNIT_ASSIGNED_CONTEXT ( ( #109, #44, #126 ) ) REPRESENTATION_CONTEXT ( 'NONE', 'WORKASPACE' ) );
#154 = ORIENTED_EDGE ( 'NONE', *, *, #20, .F. ) ;
#155 = APPROVAL_ROLE ( '' ) ;
#156 = APPLICATION_PROTOCOL_DEFINITION ( 'international standard', 'config_control_design', 1994, #32 ) ;
#157 = LOCAL_TIME ( 9, 38, 25.00000000000000000, #61 ) ;
#158 = CARTESIAN_POINT ( 'NONE',  ( 0.7500000000000000000, 0.000000000000000000, 0.000000000000000000 ) ) ;
#159 = ORIENTED_EDGE ( 'NONE', *, *, #62, .F. ) ;
#160 = DIRECTION ( 'NONE',  ( 0.000000000000000000, 0.000000000000000000, 1.000000000000000000 ) ) ;
#161 = ORIENTED_EDGE ( 'NONE', *, *, #120, .F. ) ;
#162 = PERSON_AND_ORGANIZATION ( #38, #102 ) ;
#163 = CC_DESIGN_PERSON_AND_ORGANIZATION_ASSIGNMENT ( #131, #16, ( #36 ) ) ;
#164 = EDGE_LOOP ( 'NONE', ( #154, #67, #141, #12 ) ) ;
#165 = EDGE_CURVE ( 'NONE', #50, #47, #68, .T. ) ;
#166 = EDGE_LOOP ( 'NONE', ( #147, #159 ) ) ;
#167 = CALENDAR_DATE ( 2021, 13, 7 ) ;
#168 = PERSON_AND_ORGANIZATION_ROLE ( 'classification_officer' ) ;
#169 = DIRECTION ( 'NONE',  ( 0.000000000000000000, 0.000000000000000000, -1.000000000000000000 ) ) ;
#170 = PERSON_AND_ORGANIZATION ( #38, #102 ) ;
#171 = PRODUCT_DEFINITION ( 'UNKNOWN', '', #130, #93 ) ;
#172 = DATE_AND_TIME ( #11, #111 ) ;
#173 = CALENDAR_DATE ( 2021, 13, 7 ) ;
#174 = ORIENTED_EDGE ( 'NONE', *, *, #120, .T. ) ;
#175 = VERTEX_POINT ( 'NONE', #124 ) ;
ENDSEC;
END-ISO-10303-21;
