ISO-10303-21;
HEADER;
FILE_DESCRIPTION (( 'STEP AP203' ),
    '1' );
FILE_NAME ('Web Model 43636_21009.step',
    '2022-03-16T15:39:20',
    ( '' ),
    ( '' ),
    'SwSTEP 2.0',
    'SolidWorks 2021',
    '' );
FILE_SCHEMA (( 'CONFIG_CONTROL_DESIGN' ));
ENDSEC;

DATA;
#1 = AXIS2_PLACEMENT_3D ( 'NONE', #161, #99, #136 ) ;
#2 = EDGE_LOOP ( 'NONE', ( #109, #81, #142, #168 ) ) ;
#3 = LOCAL_TIME ( 11, 39, 20.00000000000000000, #163 ) ;
#4 = ORIENTED_EDGE ( 'NONE', *, *, #41, .T. ) ;
#5 = EDGE_LOOP ( 'NONE', ( #19, #108 ) ) ;
#6 = AXIS2_PLACEMENT_3D ( 'NONE', #150, #73, #113 ) ;
#7 = DIRECTION ( 'NONE',  ( 1.000000000000000000, 0.000000000000000000, 0.000000000000000000 ) ) ;
#8 = ADVANCED_FACE ( 'NONE', ( #156 ), #146, .F. ) ;
#9 = CARTESIAN_POINT ( 'NONE',  ( 0.000000000000000000, 0.000000000000000000, 0.5000000000000000000 ) ) ;
#10 = DIRECTION ( 'NONE',  ( 0.000000000000000000, 0.000000000000000000, 1.000000000000000000 ) ) ;
#11 = FACE_OUTER_BOUND ( 'NONE', #120, .T. ) ;
#12 = CALENDAR_DATE ( 2022, 16, 3 ) ;
#13 = PERSON_AND_ORGANIZATION_ROLE ( 'design_owner' ) ;
#14 = APPROVAL_DATE_TIME ( #38, #137 ) ;
#15 = CC_DESIGN_SECURITY_CLASSIFICATION ( #144, ( #25 ) ) ;
#16 = CALENDAR_DATE ( 2022, 16, 3 ) ;
#17 = VERTEX_POINT ( 'NONE', #110 ) ;
#18 = VECTOR ( 'NONE', #98, 1000.000000000000000 ) ;
#19 = ORIENTED_EDGE ( 'NONE', *, *, #121, .T. ) ;
#20 = VERTEX_POINT ( 'NONE', #165 ) ;
#21 = VERTEX_POINT ( 'NONE', #158 ) ;
#22 = LINE ( 'NONE', #23, #18 ) ;
#23 = CARTESIAN_POINT ( 'NONE',  ( -12.69999999999999929, 0.000000000000000000, 0.5000000000000000000 ) ) ;
#24 = AXIS2_PLACEMENT_3D ( 'NONE', #147, #132, #7 ) ;
#25 = PRODUCT_DEFINITION_FORMATION_WITH_SPECIFIED_SOURCE ( 'ANY', '', #127, .NOT_KNOWN. ) ;
#26 = CC_DESIGN_PERSON_AND_ORGANIZATION_ASSIGNMENT ( #49, #13, ( #127 ) ) ;
#27 = COORDINATED_UNIVERSAL_TIME_OFFSET ( 5, 0, .BEHIND. ) ;
#28 = APPROVAL_PERSON_ORGANIZATION ( #115, #139, #135 ) ;
#29 = DATE_AND_TIME ( #117, #3 ) ;
#30 = AXIS2_PLACEMENT_3D ( 'NONE', #71, #169, #111 ) ;
#31 = PERSON_AND_ORGANIZATION ( #122, #112 ) ;
#32 = CARTESIAN_POINT ( 'NONE',  ( 0.000000000000000000, 0.000000000000000000, 0.000000000000000000 ) ) ;
#33 =( NAMED_UNIT ( * ) PLANE_ANGLE_UNIT ( ) SI_UNIT ( $, .RADIAN. ) );
#34 = DIRECTION ( 'NONE',  ( 1.000000000000000000, 0.000000000000000000, 0.000000000000000000 ) ) ;
#35 = PRODUCT_RELATED_PRODUCT_CATEGORY ( 'detail', '', ( #127 ) ) ;
#36 = APPROVAL_STATUS ( 'not_yet_approved' ) ;
#37 =( NAMED_UNIT ( * ) SI_UNIT ( $, .STERADIAN. ) SOLID_ANGLE_UNIT ( ) );
#38 = DATE_AND_TIME ( #138, #129 ) ;
#39 = CIRCLE ( 'NONE', #90, 12.69999999999999929 ) ;
#40 = COORDINATED_UNIVERSAL_TIME_OFFSET ( 5, 0, .BEHIND. ) ;
#41 = EDGE_CURVE ( 'NONE', #95, #17, #174, .T. ) ;
#42 = PERSON_AND_ORGANIZATION ( #122, #112 ) ;
#43 = CC_DESIGN_DATE_AND_TIME_ASSIGNMENT ( #78, #105, ( #166 ) ) ;
#44 = AXIS2_PLACEMENT_3D ( 'NONE', #82, #63, #47 ) ;
#45 = VECTOR ( 'NONE', #134, 1000.000000000000000 ) ;
#46 = APPLICATION_CONTEXT ( 'configuration controlled 3d designs of mechanical parts and assemblies' ) ;
#47 = DIRECTION ( 'NONE',  ( 1.000000000000000000, 0.000000000000000000, -0.000000000000000000 ) ) ;
#48 = CARTESIAN_POINT ( 'NONE',  ( 12.69999999999999929, 1.555301434917138433E-15, 0.000000000000000000 ) ) ;
#49 = PERSON_AND_ORGANIZATION ( #122, #112 ) ;
#50 = LOCAL_TIME ( 11, 39, 20.00000000000000000, #40 ) ;
#51 = EDGE_CURVE ( 'NONE', #17, #95, #39, .T. ) ;
#52 = APPLICATION_PROTOCOL_DEFINITION ( 'international standard', 'config_control_design', 1994, #46 ) ;
#53 = MANIFOLD_SOLID_BREP ( 'Boss-Extrude1', #172 ) ;
#54 = APPROVAL_DATE_TIME ( #125, #139 ) ;
#55 = AXIS2_PLACEMENT_3D ( 'NONE', #9, #124, #86 ) ;
#56 = APPROVAL_STATUS ( 'not_yet_approved' ) ;
#57 = CC_DESIGN_PERSON_AND_ORGANIZATION_ASSIGNMENT ( #155, #76, ( #25 ) ) ;
#58 = PRODUCT_DEFINITION_SHAPE ( 'NONE', 'NONE',  #166 ) ;
#59 = PERSON_AND_ORGANIZATION_ROLE ( 'classification_officer' ) ;
#60 = CC_DESIGN_PERSON_AND_ORGANIZATION_ASSIGNMENT ( #152, #59, ( #144 ) ) ;
#61 = EDGE_CURVE ( 'NONE', #20, #95, #148, .T. ) ;
#62 = EDGE_CURVE ( 'NONE', #21, #17, #22, .T. ) ;
#63 = DIRECTION ( 'NONE',  ( 0.000000000000000000, 0.000000000000000000, 1.000000000000000000 ) ) ;
#64 = EDGE_LOOP ( 'NONE', ( #145, #157 ) ) ;
#65 = APPLICATION_CONTEXT ( 'configuration controlled 3d designs of mechanical parts and assemblies' ) ;
#66 = DIRECTION ( 'NONE',  ( -0.000000000000000000, -0.000000000000000000, -1.000000000000000000 ) ) ;
#67 = LOCAL_TIME ( 11, 39, 20.00000000000000000, #27 ) ;
#68 = MECHANICAL_CONTEXT ( 'NONE', #65, 'mechanical' ) ;
#69 = UNCERTAINTY_MEASURE_WITH_UNIT (LENGTH_MEASURE( 1.000000000000000082E-05 ), #133, 'distance_accuracy_value', 'NONE');
#70 = ADVANCED_FACE ( 'NONE', ( #114 ), #149, .T. ) ;
#71 = CARTESIAN_POINT ( 'NONE',  ( 0.000000000000000000, 0.000000000000000000, 0.5000000000000000000 ) ) ;
#72 = CC_DESIGN_DATE_AND_TIME_ASSIGNMENT ( #29, #104, ( #144 ) ) ;
#73 = DIRECTION ( 'NONE',  ( 0.000000000000000000, 0.000000000000000000, 1.000000000000000000 ) ) ;
#74 = LOCAL_TIME ( 11, 39, 20.00000000000000000, #101 ) ;
#75 = EDGE_CURVE ( 'NONE', #20, #21, #123, .T. ) ;
#76 = PERSON_AND_ORGANIZATION_ROLE ( 'creator' ) ;
#77 = PERSON_AND_ORGANIZATION ( #122, #112 ) ;
#78 = DATE_AND_TIME ( #16, #50 ) ;
#79 = APPROVAL_PERSON_ORGANIZATION ( #31, #137, #130 ) ;
#80 = CC_DESIGN_PERSON_AND_ORGANIZATION_ASSIGNMENT ( #77, #92, ( #166 ) ) ;
#81 = ORIENTED_EDGE ( 'NONE', *, *, #121, .F. ) ;
#82 = CARTESIAN_POINT ( 'NONE',  ( 0.000000000000000000, 0.000000000000000000, 0.000000000000000000 ) ) ;
#83 = ADVANCED_BREP_SHAPE_REPRESENTATION ( 'Web Model 43636_21009', ( #53, #1 ), #100 ) ;
#84 = CARTESIAN_POINT ( 'NONE',  ( 0.000000000000000000, 0.000000000000000000, 0.5000000000000000000 ) ) ;
#85 = CC_DESIGN_APPROVAL ( #139, ( #166 ) ) ;
#86 = DIRECTION ( 'NONE',  ( -1.000000000000000000, 0.000000000000000000, 0.000000000000000000 ) ) ;
#87 = APPLICATION_PROTOCOL_DEFINITION ( 'international standard', 'config_control_design', 1994, #65 ) ;
#88 = SECURITY_CLASSIFICATION_LEVEL ( 'unclassified' ) ;
#89 = COORDINATED_UNIVERSAL_TIME_OFFSET ( 5, 0, .BEHIND. ) ;
#90 = AXIS2_PLACEMENT_3D ( 'NONE', #32, #93, #34 ) ;
#91 = ADVANCED_FACE ( 'NONE', ( #11 ), #103, .T. ) ;
#92 = PERSON_AND_ORGANIZATION_ROLE ( 'creator' ) ;
#93 = DIRECTION ( 'NONE',  ( 0.000000000000000000, 0.000000000000000000, 1.000000000000000000 ) ) ;
#94 = CC_DESIGN_APPROVAL ( #119, ( #25 ) ) ;
#95 = VERTEX_POINT ( 'NONE', #48 ) ;
#96 = ORIENTED_EDGE ( 'NONE', *, *, #61, .T. ) ;
#97 = DIRECTION ( 'NONE',  ( 1.000000000000000000, 0.000000000000000000, 0.000000000000000000 ) ) ;
#98 = DIRECTION ( 'NONE',  ( -0.000000000000000000, -0.000000000000000000, -1.000000000000000000 ) ) ;
#99 = DIRECTION ( 'NONE',  ( 0.000000000000000000, 0.000000000000000000, 1.000000000000000000 ) ) ;
#100 =( GEOMETRIC_REPRESENTATION_CONTEXT ( 3 ) GLOBAL_UNCERTAINTY_ASSIGNED_CONTEXT ( ( #69 ) ) GLOBAL_UNIT_ASSIGNED_CONTEXT ( ( #133, #33, #37 ) ) REPRESENTATION_CONTEXT ( 'NONE', 'WORKASPACE' ) );
#101 = COORDINATED_UNIVERSAL_TIME_OFFSET ( 5, 0, .BEHIND. ) ;
#102 = CC_DESIGN_APPROVAL ( #137, ( #144 ) ) ;
#103 = CYLINDRICAL_SURFACE ( 'NONE', #143, 12.69999999999999929 ) ;
#104 = DATE_TIME_ROLE ( 'classification_date' ) ;
#105 = DATE_TIME_ROLE ( 'creation_date' ) ;
#106 = PERSON_AND_ORGANIZATION_ROLE ( 'design_supplier' ) ;
#107 = CC_DESIGN_PERSON_AND_ORGANIZATION_ASSIGNMENT ( #42, #106, ( #25 ) ) ;
#108 = ORIENTED_EDGE ( 'NONE', *, *, #75, .T. ) ;
#109 = ORIENTED_EDGE ( 'NONE', *, *, #61, .F. ) ;
#110 = CARTESIAN_POINT ( 'NONE',  ( -12.69999999999999929, 0.000000000000000000, 0.000000000000000000 ) ) ;
#111 = DIRECTION ( 'NONE',  ( 1.000000000000000000, 0.000000000000000000, 0.000000000000000000 ) ) ;
#112 = ORGANIZATION ( 'UNSPECIFIED', 'UNSPECIFIED', '' ) ;
#113 = DIRECTION ( 'NONE',  ( 1.000000000000000000, 0.000000000000000000, -0.000000000000000000 ) ) ;
#114 = FACE_OUTER_BOUND ( 'NONE', #5, .T. ) ;
#115 = PERSON_AND_ORGANIZATION ( #122, #112 ) ;
#116 = CARTESIAN_POINT ( 'NONE',  ( 12.69999999999999929, 1.555301434917138433E-15, 0.5000000000000000000 ) ) ;
#117 = CALENDAR_DATE ( 2022, 16, 3 ) ;
#118 = ADVANCED_FACE ( 'NONE', ( #162 ), #171, .T. ) ;
#119 = APPROVAL ( #56, 'UNSPECIFIED' ) ;
#120 = EDGE_LOOP ( 'NONE', ( #167, #96, #4, #141 ) ) ;
#121 = EDGE_CURVE ( 'NONE', #21, #20, #159, .T. ) ;
#122 = PERSON ( 'UNSPECIFIED', 'UNSPECIFIED', 'UNSPECIFIED', ('UNSPECIFIED'), ('UNSPECIFIED'), ('UNSPECIFIED') ) ;
#123 = CIRCLE ( 'NONE', #131, 12.69999999999999929 ) ;
#124 = DIRECTION ( 'NONE',  ( -0.000000000000000000, -0.000000000000000000, -1.000000000000000000 ) ) ;
#125 = DATE_AND_TIME ( #12, #74 ) ;
#126 = DIRECTION ( 'NONE',  ( -1.000000000000000000, 0.000000000000000000, 0.000000000000000000 ) ) ;
#127 = PRODUCT ( 'Web Model 43636_21009', 'Web Model 43636_21009', '', ( #68 ) ) ;
#128 = DATE_AND_TIME ( #140, #67 ) ;
#129 = LOCAL_TIME ( 11, 39, 20.00000000000000000, #89 ) ;
#130 = APPROVAL_ROLE ( '' ) ;
#131 = AXIS2_PLACEMENT_3D ( 'NONE', #84, #10, #97 ) ;
#132 = DIRECTION ( 'NONE',  ( 0.000000000000000000, 0.000000000000000000, 1.000000000000000000 ) ) ;
#133 =( LENGTH_UNIT ( ) NAMED_UNIT ( * ) SI_UNIT ( .MILLI., .METRE. ) );
#134 = DIRECTION ( 'NONE',  ( -0.000000000000000000, -0.000000000000000000, -1.000000000000000000 ) ) ;
#135 = APPROVAL_ROLE ( '' ) ;
#136 = DIRECTION ( 'NONE',  ( 1.000000000000000000, 0.000000000000000000, 0.000000000000000000 ) ) ;
#137 = APPROVAL ( #175, 'UNSPECIFIED' ) ;
#138 = CALENDAR_DATE ( 2022, 16, 3 ) ;
#139 = APPROVAL ( #36, 'UNSPECIFIED' ) ;
#140 = CALENDAR_DATE ( 2022, 16, 3 ) ;
#141 = ORIENTED_EDGE ( 'NONE', *, *, #62, .F. ) ;
#142 = ORIENTED_EDGE ( 'NONE', *, *, #62, .T. ) ;
#143 = AXIS2_PLACEMENT_3D ( 'NONE', #151, #66, #126 ) ;
#144 = SECURITY_CLASSIFICATION ( '', '', #88 ) ;
#145 = ORIENTED_EDGE ( 'NONE', *, *, #51, .F. ) ;
#146 = PLANE ( 'NONE',  #44 ) ;
#147 = CARTESIAN_POINT ( 'NONE',  ( 0.000000000000000000, 0.000000000000000000, 0.000000000000000000 ) ) ;
#148 = LINE ( 'NONE', #116, #45 ) ;
#149 = PLANE ( 'NONE',  #6 ) ;
#150 = CARTESIAN_POINT ( 'NONE',  ( 0.000000000000000000, 0.000000000000000000, 0.5000000000000000000 ) ) ;
#151 = CARTESIAN_POINT ( 'NONE',  ( 0.000000000000000000, 0.000000000000000000, 0.5000000000000000000 ) ) ;
#152 = PERSON_AND_ORGANIZATION ( #122, #112 ) ;
#153 = APPROVAL_DATE_TIME ( #128, #119 ) ;
#154 = SHAPE_DEFINITION_REPRESENTATION ( #58, #83 ) ;
#155 = PERSON_AND_ORGANIZATION ( #122, #112 ) ;
#156 = FACE_OUTER_BOUND ( 'NONE', #64, .T. ) ;
#157 = ORIENTED_EDGE ( 'NONE', *, *, #41, .F. ) ;
#158 = CARTESIAN_POINT ( 'NONE',  ( -12.69999999999999929, 0.000000000000000000, 0.5000000000000000000 ) ) ;
#159 = CIRCLE ( 'NONE', #30, 12.69999999999999929 ) ;
#160 = APPROVAL_PERSON_ORGANIZATION ( #173, #119, #164 ) ;
#161 = CARTESIAN_POINT ( 'NONE',  ( 0.000000000000000000, 0.000000000000000000, 0.000000000000000000 ) ) ;
#162 = FACE_OUTER_BOUND ( 'NONE', #2, .T. ) ;
#163 = COORDINATED_UNIVERSAL_TIME_OFFSET ( 5, 0, .BEHIND. ) ;
#164 = APPROVAL_ROLE ( '' ) ;
#165 = CARTESIAN_POINT ( 'NONE',  ( 12.69999999999999929, 1.555301434917138433E-15, 0.5000000000000000000 ) ) ;
#166 = PRODUCT_DEFINITION ( 'UNKNOWN', '', #25, #170 ) ;
#167 = ORIENTED_EDGE ( 'NONE', *, *, #75, .F. ) ;
#168 = ORIENTED_EDGE ( 'NONE', *, *, #51, .T. ) ;
#169 = DIRECTION ( 'NONE',  ( 0.000000000000000000, 0.000000000000000000, 1.000000000000000000 ) ) ;
#170 = DESIGN_CONTEXT ( 'detailed design', #46, 'design' ) ;
#171 = CYLINDRICAL_SURFACE ( 'NONE', #55, 12.69999999999999929 ) ;
#172 = CLOSED_SHELL ( 'NONE', ( #91, #118, #70, #8 ) ) ;
#173 = PERSON_AND_ORGANIZATION ( #122, #112 ) ;
#174 = CIRCLE ( 'NONE', #24, 12.69999999999999929 ) ;
#175 = APPROVAL_STATUS ( 'not_yet_approved' ) ;
ENDSEC;
END-ISO-10303-21;
