ISO-10303-21;
HEADER;
FILE_DESCRIPTION (( 'STEP AP203' ),
    '1' );
FILE_NAME ('Web Model 46461_46461.step',
    '2018-04-10T20:08:10',
    ( '' ),
    ( '' ),
    'SwSTEP 2.0',
    'SolidWorks 2016',
    '' );
FILE_SCHEMA (( 'CONFIG_CONTROL_DESIGN' ));
ENDSEC;

DATA;
#1 = PLANE ( 'NONE',  #121 ) ;
#2 = EDGE_CURVE ( 'NONE', #165, #213, #7, .T. ) ;
#3 = ORIENTED_EDGE ( 'NONE', *, *, #208, .T. ) ;
#4 = ORIENTED_EDGE ( 'NONE', *, *, #133, .T. ) ;
#5 = PERSON_AND_ORGANIZATION_ROLE ( 'design_supplier' ) ;
#6 = PERSON_AND_ORGANIZATION_ROLE ( 'design_owner' ) ;
#7 = LINE ( 'NONE', #84, #69 ) ;
#8 = PRODUCT ( 'Web Model 46461_46461', 'Web Model 46461_46461', '', ( #202 ) ) ;
#9 = APPROVAL_PERSON_ORGANIZATION ( #102, #106, #223 ) ;
#10 = CARTESIAN_POINT ( 'NONE',  ( -0.7500000000000000000, 18.99999999999999600, 19.00000000000000000 ) ) ;
#11 = CARTESIAN_POINT ( 'NONE',  ( -0.7500000000000000000, 18.99999999999999600, 19.00000000000000000 ) ) ;
#12 = LINE ( 'NONE', #105, #86 ) ;
#13 = APPROVAL_DATE_TIME ( #136, #106 ) ;
#14 = DATE_AND_TIME ( #205, #112 ) ;
#15 = ORIENTED_EDGE ( 'NONE', *, *, #2, .F. ) ;
#16 = EDGE_LOOP ( 'NONE', ( #198, #217, #116, #180 ) ) ;
#17 = VECTOR ( 'NONE', #70, 1000.000000000000000 ) ;
#18 = DIRECTION ( 'NONE',  ( -0.0000000000000000000, -0.0000000000000000000, 1.000000000000000000 ) ) ;
#19 = APPROVAL_PERSON_ORGANIZATION ( #232, #183, #24 ) ;
#20 = CC_DESIGN_PERSON_AND_ORGANIZATION_ASSIGNMENT ( #225, #220, ( #143 ) ) ;
#21 = PLANE ( 'NONE',  #163 ) ;
#22 = LINE ( 'NONE', #100, #209 ) ;
#23 = PLANE ( 'NONE',  #156 ) ;
#24 = APPROVAL_ROLE ( '' ) ;
#25 = VECTOR ( 'NONE', #18, 1000.000000000000000 ) ;
#26 = CARTESIAN_POINT ( 'NONE',  ( 0.7500000000000000000, -18.99999999999999600, 19.00000000000000700 ) ) ;
#27 = VERTEX_POINT ( 'NONE', #146 ) ;
#28 = DIRECTION ( 'NONE',  ( 0.0000000000000000000, -1.000000000000000000, 1.826024711554534200E-016 ) ) ;
#29 = DIRECTION ( 'NONE',  ( 1.000000000000000000, 0.0000000000000000000, 0.0000000000000000000 ) ) ;
#30 = PERSON_AND_ORGANIZATION ( #144, #115 ) ;
#31 = DIRECTION ( 'NONE',  ( -0.0000000000000000000, 1.000000000000000000, 0.0000000000000000000 ) ) ;
#32 = CARTESIAN_POINT ( 'NONE',  ( 0.7500000000000000000, 18.99999999999999600, 19.00000000000000000 ) ) ;
#33 = LOCAL_TIME ( 16, 8, 10.00000000000000000, #43 ) ;
#34 = ORIENTED_EDGE ( 'NONE', *, *, #103, .T. ) ;
#35 = AXIS2_PLACEMENT_3D ( 'NONE', #62, #145, #83 ) ;
#36 = FACE_OUTER_BOUND ( 'NONE', #16, .T. ) ;
#37 = ORIENTED_EDGE ( 'NONE', *, *, #111, .F. ) ;
#38 = DIRECTION ( 'NONE',  ( 0.0000000000000000000, -0.0000000000000000000, -1.000000000000000000 ) ) ;
#39 = SECURITY_CLASSIFICATION ( '', '', #140 ) ;
#40 =( NAMED_UNIT ( * ) PLANE_ANGLE_UNIT ( ) SI_UNIT ( $, .RADIAN. ) );
#41 = DATE_AND_TIME ( #171, #229 ) ;
#42 = ADVANCED_FACE ( 'NONE', ( #99 ), #236, .T. ) ;
#43 = COORDINATED_UNIVERSAL_TIME_OFFSET ( 5, 0, .BEHIND. ) ;
#44 = VECTOR ( 'NONE', #52, 1000.000000000000000 ) ;
#45 = EDGE_LOOP ( 'NONE', ( #132, #188, #210, #94 ) ) ;
#46 = DIRECTION ( 'NONE',  ( 0.0000000000000000000, -1.826024711554534200E-016, -1.000000000000000000 ) ) ;
#47 = DIRECTION ( 'NONE',  ( 0.0000000000000000000, 0.0000000000000000000, -1.000000000000000000 ) ) ;
#48 = PERSON_AND_ORGANIZATION ( #144, #115 ) ;
#49 = PERSON_AND_ORGANIZATION ( #144, #115 ) ;
#50 = FACE_OUTER_BOUND ( 'NONE', #235, .T. ) ;
#51 = DIRECTION ( 'NONE',  ( -1.000000000000000000, -0.0000000000000000000, -0.0000000000000000000 ) ) ;
#52 = DIRECTION ( 'NONE',  ( -0.0000000000000000000, -0.0000000000000000000, 1.000000000000000000 ) ) ;
#53 = CC_DESIGN_APPROVAL ( #183, ( #143 ) ) ;
#54 = APPROVAL_DATE_TIME ( #41, #192 ) ;
#55 = LINE ( 'NONE', #211, #187 ) ;
#56 = APPROVAL_STATUS ( 'not_yet_approved' ) ;
#57 = CARTESIAN_POINT ( 'NONE',  ( -0.7500000000000000000, 18.99999999999999600, 19.00000000000000000 ) ) ;
#58 = EDGE_LOOP ( 'NONE', ( #123, #172, #155, #34 ) ) ;
#59 = ADVANCED_FACE ( 'NONE', ( #154 ), #207, .F. ) ;
#60 = EDGE_CURVE ( 'NONE', #168, #27, #93, .T. ) ;
#61 = VERTEX_POINT ( 'NONE', #169 ) ;
#62 = CARTESIAN_POINT ( 'NONE',  ( 0.7500000000000000000, 0.0000000000000000000, 0.0000000000000000000 ) ) ;
#63 = LINE ( 'NONE', #135, #113 ) ;
#64 = AXIS2_PLACEMENT_3D ( 'NONE', #181, #77, #79 ) ;
#65 = EDGE_CURVE ( 'NONE', #177, #168, #55, .T. ) ;
#66 = PERSON_AND_ORGANIZATION ( #144, #115 ) ;
#67 = LINE ( 'NONE', #32, #150 ) ;
#68 = CARTESIAN_POINT ( 'NONE',  ( 0.7500000000000000000, 18.99999999999999600, 19.00000000000000000 ) ) ;
#69 = VECTOR ( 'NONE', #28, 1000.000000000000000 ) ;
#70 = DIRECTION ( 'NONE',  ( 0.0000000000000000000, 0.0000000000000000000, -1.000000000000000000 ) ) ;
#71 = DIRECTION ( 'NONE',  ( 0.0000000000000000000, -0.0000000000000000000, 1.000000000000000000 ) ) ;
#72 = ORIENTED_EDGE ( 'NONE', *, *, #228, .T. ) ;
#73 = ADVANCED_FACE ( 'NONE', ( #50 ), #148, .F. ) ;
#74 = DIRECTION ( 'NONE',  ( 0.0000000000000000000, -1.000000000000000000, 1.826024711554534200E-016 ) ) ;
#75 = APPROVAL_DATE_TIME ( #221, #183 ) ;
#76 = ORIENTED_EDGE ( 'NONE', *, *, #133, .F. ) ;
#77 = DIRECTION ( 'NONE',  ( 0.0000000000000000000, 0.0000000000000000000, 1.000000000000000000 ) ) ;
#78 = CC_DESIGN_PERSON_AND_ORGANIZATION_ASSIGNMENT ( #48, #6, ( #8 ) ) ;
#79 = DIRECTION ( 'NONE',  ( 1.000000000000000000, 0.0000000000000000000, 0.0000000000000000000 ) ) ;
#80 = PRODUCT_RELATED_PRODUCT_CATEGORY ( 'detail', '', ( #8 ) ) ;
#81 = VECTOR ( 'NONE', #51, 1000.000000000000000 ) ;
#82 = CARTESIAN_POINT ( 'NONE',  ( -0.7500000000000000000, 0.0000000000000000000, 0.0000000000000000000 ) ) ;
#83 = DIRECTION ( 'NONE',  ( 0.0000000000000000000, 0.0000000000000000000, -1.000000000000000000 ) ) ;
#84 = CARTESIAN_POINT ( 'NONE',  ( 0.7500000000000000000, 18.99999999999999600, 19.00000000000000000 ) ) ;
#85 = VERTEX_POINT ( 'NONE', #10 ) ;
#86 = VECTOR ( 'NONE', #179, 1000.000000000000000 ) ;
#87 = ORIENTED_EDGE ( 'NONE', *, *, #228, .F. ) ;
#88 = CC_DESIGN_PERSON_AND_ORGANIZATION_ASSIGNMENT ( #49, #139, ( #39 ) ) ;
#89 = COORDINATED_UNIVERSAL_TIME_OFFSET ( 5, 0, .BEHIND. ) ;
#90 = CC_DESIGN_SECURITY_CLASSIFICATION ( #39, ( #143 ) ) ;
#91 = CALENDAR_DATE ( 2018, 10, 4 ) ;
#92 = APPROVAL_STATUS ( 'not_yet_approved' ) ;
#93 = LINE ( 'NONE', #231, #81 ) ;
#94 = ORIENTED_EDGE ( 'NONE', *, *, #60, .T. ) ;
#95 = DIRECTION ( 'NONE',  ( 0.0000000000000000000, -1.000000000000000000, -1.826024711554534200E-016 ) ) ;
#96 = APPROVAL_STATUS ( 'not_yet_approved' ) ;
#97 = AXIS2_PLACEMENT_3D ( 'NONE', #82, #29, #47 ) ;
#98 = EDGE_CURVE ( 'NONE', #27, #85, #131, .T. ) ;
#99 = FACE_OUTER_BOUND ( 'NONE', #58, .T. ) ;
#100 = CARTESIAN_POINT ( 'NONE',  ( 0.7500000000000000000, -18.99999999999999600, -19.00000000000000700 ) ) ;
#101 = EDGE_CURVE ( 'NONE', #165, #85, #67, .T. ) ;
#102 = PERSON_AND_ORGANIZATION ( #144, #115 ) ;
#103 = EDGE_CURVE ( 'NONE', #168, #165, #234, .T. ) ;
#104 = UNCERTAINTY_MEASURE_WITH_UNIT (LENGTH_MEASURE( 1.000000000000000100E-005 ), #137, 'distance_accuracy_value', 'NONE');
#105 = CARTESIAN_POINT ( 'NONE',  ( -0.7500000000000000000, 18.99999999999999600, -19.00000000000000000 ) ) ;
#106 = APPROVAL ( #96, 'UNSPECIFIED' ) ;
#107 = APPROVAL_PERSON_ORGANIZATION ( #30, #192, #124 ) ;
#108 = ORIENTED_EDGE ( 'NONE', *, *, #175, .F. ) ;
#109 = CARTESIAN_POINT ( 'NONE',  ( 0.7500000000000000000, -18.99999999999999600, 19.00000000000000700 ) ) ;
#110 = APPLICATION_PROTOCOL_DEFINITION ( 'international standard', 'config_control_design', 1994, #141 ) ;
#111 = EDGE_CURVE ( 'NONE', #177, #206, #22, .T. ) ;
#112 = LOCAL_TIME ( 16, 8, 10.00000000000000000, #216 ) ;
#113 = VECTOR ( 'NONE', #152, 1000.000000000000000 ) ;
#114 = EDGE_CURVE ( 'NONE', #206, #27, #12, .T. ) ;
#115 = ORGANIZATION ( 'UNSPECIFIED', 'UNSPECIFIED', '' ) ;
#116 = ORIENTED_EDGE ( 'NONE', *, *, #65, .F. ) ;
#117 = FACE_OUTER_BOUND ( 'NONE', #127, .T. ) ;
#118 = CARTESIAN_POINT ( 'NONE',  ( 0.7500000000000000000, 18.99999999999999600, -19.00000000000000000 ) ) ;
#119 = PERSON_AND_ORGANIZATION ( #144, #115 ) ;
#120 = MANIFOLD_SOLID_BREP ( 'Boss-Extrude1', #193 ) ;
#121 = AXIS2_PLACEMENT_3D ( 'NONE', #197, #122, #38 ) ;
#122 = DIRECTION ( 'NONE',  ( 0.0000000000000000000, -1.000000000000000000, 0.0000000000000000000 ) ) ;
#123 = ORIENTED_EDGE ( 'NONE', *, *, #2, .T. ) ;
#124 = APPROVAL_ROLE ( '' ) ;
#125 = CC_DESIGN_DATE_AND_TIME_ASSIGNMENT ( #14, #158, ( #39 ) ) ;
#126 = LINE ( 'NONE', #219, #17 ) ;
#127 = EDGE_LOOP ( 'NONE', ( #4, #37, #108, #3 ) ) ;
#128 = CC_DESIGN_APPROVAL ( #192, ( #218 ) ) ;
#129 = CARTESIAN_POINT ( 'NONE',  ( 0.7500000000000000000, 18.99999999999999600, 19.00000000000000000 ) ) ;
#130 = LOCAL_TIME ( 16, 8, 10.00000000000000000, #185 ) ;
#131 = LINE ( 'NONE', #11, #44 ) ;
#132 = ORIENTED_EDGE ( 'NONE', *, *, #98, .T. ) ;
#133 = EDGE_CURVE ( 'NONE', #61, #206, #63, .T. ) ;
#134 = DIRECTION ( 'NONE',  ( -1.000000000000000000, -0.0000000000000000000, -0.0000000000000000000 ) ) ;
#135 = CARTESIAN_POINT ( 'NONE',  ( -0.7500000000000000000, -18.99999999999999600, 19.00000000000000700 ) ) ;
#136 = DATE_AND_TIME ( #91, #130 ) ;
#137 =( LENGTH_UNIT ( ) NAMED_UNIT ( * ) SI_UNIT ( .MILLI., .METRE. ) );
#138 = ORIENTED_EDGE ( 'NONE', *, *, #208, .F. ) ;
#139 = PERSON_AND_ORGANIZATION_ROLE ( 'classification_officer' ) ;
#140 = SECURITY_CLASSIFICATION_LEVEL ( 'unclassified' ) ;
#141 = APPLICATION_CONTEXT ( 'configuration controlled 3d designs of mechanical parts and assemblies' ) ;
#142 = LINE ( 'NONE', #57, #191 ) ;
#143 = PRODUCT_DEFINITION_FORMATION_WITH_SPECIFIED_SOURCE ( 'ANY', '', #8, .NOT_KNOWN. ) ;
#144 = PERSON ( 'UNSPECIFIED', 'UNSPECIFIED', 'UNSPECIFIED', ('UNSPECIFIED'), ('UNSPECIFIED'), ('UNSPECIFIED') ) ;
#145 = DIRECTION ( 'NONE',  ( 1.000000000000000000, 0.0000000000000000000, 0.0000000000000000000 ) ) ;
#146 = CARTESIAN_POINT ( 'NONE',  ( -0.7500000000000000000, 18.99999999999999600, -19.00000000000000000 ) ) ;
#147 = ADVANCED_BREP_SHAPE_REPRESENTATION ( 'Web Model 46461_46461', ( #120, #64 ), #178 ) ;
#148 = PLANE ( 'NONE',  #97 ) ;
#149 = EDGE_LOOP ( 'NONE', ( #72, #138, #15, #226 ) ) ;
#150 = VECTOR ( 'NONE', #134, 1000.000000000000000 ) ;
#151 = DIRECTION ( 'NONE',  ( -1.000000000000000000, -0.0000000000000000000, -0.0000000000000000000 ) ) ;
#152 = DIRECTION ( 'NONE',  ( 0.0000000000000000000, 0.0000000000000000000, -1.000000000000000000 ) ) ;
#153 = COORDINATED_UNIVERSAL_TIME_OFFSET ( 5, 0, .BEHIND. ) ;
#154 = FACE_OUTER_BOUND ( 'NONE', #149, .T. ) ;
#155 = ORIENTED_EDGE ( 'NONE', *, *, #65, .T. ) ;
#156 = AXIS2_PLACEMENT_3D ( 'NONE', #224, #204, #95 ) ;
#157 = APPLICATION_PROTOCOL_DEFINITION ( 'international standard', 'config_control_design', 1994, #182 ) ;
#158 = DATE_TIME_ROLE ( 'classification_date' ) ;
#159 = LINE ( 'NONE', #215, #195 ) ;
#160 =( NAMED_UNIT ( * ) SI_UNIT ( $, .STERADIAN. ) SOLID_ANGLE_UNIT ( ) );
#161 = PERSON_AND_ORGANIZATION_ROLE ( 'creator' ) ;
#162 = CALENDAR_DATE ( 2018, 10, 4 ) ;
#163 = AXIS2_PLACEMENT_3D ( 'NONE', #109, #31, #71 ) ;
#164 = SHAPE_DEFINITION_REPRESENTATION ( #237, #147 ) ;
#165 = VERTEX_POINT ( 'NONE', #196 ) ;
#166 = ADVANCED_FACE ( 'NONE', ( #117 ), #21, .F. ) ;
#167 = DESIGN_CONTEXT ( 'detailed design', #182, 'design' ) ;
#168 = VERTEX_POINT ( 'NONE', #118 ) ;
#169 = CARTESIAN_POINT ( 'NONE',  ( -0.7500000000000000000, -18.99999999999999600, 19.00000000000000700 ) ) ;
#170 = CC_DESIGN_APPROVAL ( #106, ( #39 ) ) ;
#171 = CALENDAR_DATE ( 2018, 10, 4 ) ;
#172 = ORIENTED_EDGE ( 'NONE', *, *, #175, .T. ) ;
#173 = DATE_AND_TIME ( #162, #233 ) ;
#174 = ORIENTED_EDGE ( 'NONE', *, *, #98, .F. ) ;
#175 = EDGE_CURVE ( 'NONE', #213, #177, #126, .T. ) ;
#176 = CARTESIAN_POINT ( 'NONE',  ( -0.7500000000000000000, -18.99999999999999600, -19.00000000000000700 ) ) ;
#177 = VERTEX_POINT ( 'NONE', #194 ) ;
#178 =( GEOMETRIC_REPRESENTATION_CONTEXT ( 3 ) GLOBAL_UNCERTAINTY_ASSIGNED_CONTEXT ( ( #104 ) ) GLOBAL_UNIT_ASSIGNED_CONTEXT ( ( #137, #40, #160 ) ) REPRESENTATION_CONTEXT ( 'NONE', 'WORKASPACE' ) );
#179 = DIRECTION ( 'NONE',  ( -0.0000000000000000000, 1.000000000000000000, 1.826024711554534200E-016 ) ) ;
#180 = ORIENTED_EDGE ( 'NONE', *, *, #111, .T. ) ;
#181 = CARTESIAN_POINT ( 'NONE',  ( 0.0000000000000000000, 0.0000000000000000000, 0.0000000000000000000 ) ) ;
#182 = APPLICATION_CONTEXT ( 'configuration controlled 3d designs of mechanical parts and assemblies' ) ;
#183 = APPROVAL ( #92, 'UNSPECIFIED' ) ;
#184 = DIRECTION ( 'NONE',  ( -1.000000000000000000, -0.0000000000000000000, -0.0000000000000000000 ) ) ;
#185 = COORDINATED_UNIVERSAL_TIME_OFFSET ( 5, 0, .BEHIND. ) ;
#186 = CC_DESIGN_DATE_AND_TIME_ASSIGNMENT ( #173, #203, ( #218 ) ) ;
#187 = VECTOR ( 'NONE', #230, 1000.000000000000000 ) ;
#188 = ORIENTED_EDGE ( 'NONE', *, *, #101, .F. ) ;
#189 = DIRECTION ( 'NONE',  ( 0.0000000000000000000, 1.000000000000000000, -1.826024711554534200E-016 ) ) ;
#190 = AXIS2_PLACEMENT_3D ( 'NONE', #68, #46, #189 ) ;
#191 = VECTOR ( 'NONE', #74, 1000.000000000000000 ) ;
#192 = APPROVAL ( #56, 'UNSPECIFIED' ) ;
#193 = CLOSED_SHELL ( 'NONE', ( #59, #166, #227, #201, #42, #73 ) ) ;
#194 = CARTESIAN_POINT ( 'NONE',  ( 0.7500000000000000000, -18.99999999999999600, -19.00000000000000700 ) ) ;
#195 = VECTOR ( 'NONE', #184, 1000.000000000000000 ) ;
#196 = CARTESIAN_POINT ( 'NONE',  ( 0.7500000000000000000, 18.99999999999999600, 19.00000000000000000 ) ) ;
#197 = CARTESIAN_POINT ( 'NONE',  ( 0.7500000000000000000, 18.99999999999999600, 19.00000000000000000 ) ) ;
#198 = ORIENTED_EDGE ( 'NONE', *, *, #114, .T. ) ;
#199 = ORIENTED_EDGE ( 'NONE', *, *, #114, .F. ) ;
#200 = CC_DESIGN_PERSON_AND_ORGANIZATION_ASSIGNMENT ( #66, #5, ( #143 ) ) ;
#201 = ADVANCED_FACE ( 'NONE', ( #222 ), #1, .F. ) ;
#202 = MECHANICAL_CONTEXT ( 'NONE', #141, 'mechanical' ) ;
#203 = DATE_TIME_ROLE ( 'creation_date' ) ;
#204 = DIRECTION ( 'NONE',  ( 0.0000000000000000000, -1.826024711554534200E-016, 1.000000000000000000 ) ) ;
#205 = CALENDAR_DATE ( 2018, 10, 4 ) ;
#206 = VERTEX_POINT ( 'NONE', #176 ) ;
#207 = PLANE ( 'NONE',  #190 ) ;
#208 = EDGE_CURVE ( 'NONE', #213, #61, #159, .T. ) ;
#209 = VECTOR ( 'NONE', #151, 1000.000000000000000 ) ;
#210 = ORIENTED_EDGE ( 'NONE', *, *, #103, .F. ) ;
#211 = CARTESIAN_POINT ( 'NONE',  ( 0.7500000000000000000, 18.99999999999999600, -19.00000000000000000 ) ) ;
#212 = CALENDAR_DATE ( 2018, 10, 4 ) ;
#213 = VERTEX_POINT ( 'NONE', #26 ) ;
#214 = CC_DESIGN_PERSON_AND_ORGANIZATION_ASSIGNMENT ( #119, #161, ( #218 ) ) ;
#215 = CARTESIAN_POINT ( 'NONE',  ( 0.7500000000000000000, -18.99999999999999600, 19.00000000000000700 ) ) ;
#216 = COORDINATED_UNIVERSAL_TIME_OFFSET ( 5, 0, .BEHIND. ) ;
#217 = ORIENTED_EDGE ( 'NONE', *, *, #60, .F. ) ;
#218 = PRODUCT_DEFINITION ( 'UNKNOWN', '', #143, #167 ) ;
#219 = CARTESIAN_POINT ( 'NONE',  ( 0.7500000000000000000, -18.99999999999999600, 19.00000000000000700 ) ) ;
#220 = PERSON_AND_ORGANIZATION_ROLE ( 'creator' ) ;
#221 = DATE_AND_TIME ( #212, #33 ) ;
#222 = FACE_OUTER_BOUND ( 'NONE', #45, .T. ) ;
#223 = APPROVAL_ROLE ( '' ) ;
#224 = CARTESIAN_POINT ( 'NONE',  ( 0.7500000000000000000, 18.99999999999999600, -19.00000000000000000 ) ) ;
#225 = PERSON_AND_ORGANIZATION ( #144, #115 ) ;
#226 = ORIENTED_EDGE ( 'NONE', *, *, #101, .T. ) ;
#227 = ADVANCED_FACE ( 'NONE', ( #36 ), #23, .F. ) ;
#228 = EDGE_CURVE ( 'NONE', #85, #61, #142, .T. ) ;
#229 = LOCAL_TIME ( 16, 8, 10.00000000000000000, #89 ) ;
#230 = DIRECTION ( 'NONE',  ( -0.0000000000000000000, 1.000000000000000000, 1.826024711554534200E-016 ) ) ;
#231 = CARTESIAN_POINT ( 'NONE',  ( 0.7500000000000000000, 18.99999999999999600, -19.00000000000000000 ) ) ;
#232 = PERSON_AND_ORGANIZATION ( #144, #115 ) ;
#233 = LOCAL_TIME ( 16, 8, 10.00000000000000000, #153 ) ;
#234 = LINE ( 'NONE', #129, #25 ) ;
#235 = EDGE_LOOP ( 'NONE', ( #87, #174, #199, #76 ) ) ;
#236 = PLANE ( 'NONE',  #35 ) ;
#237 = PRODUCT_DEFINITION_SHAPE ( 'NONE', 'NONE',  #218 ) ;
ENDSEC;
END-ISO-10303-21;
