ISO-10303-21;
HEADER;
FILE_DESCRIPTION (( 'STEP AP203' ),
    '1' );
FILE_NAME ('24954-E0W.STEP',
    '2012-10-01T14:06:20',
    ( 'Admin' ),
    ( 'Thorlabs, Inc.' ),
    'SwSTEP 2.0',
    'SolidWorks 2011',
    '' );
FILE_SCHEMA (( 'CONFIG_CONTROL_DESIGN' ));
ENDSEC;

DATA;
#1 = ADVANCED_FACE ( 'NONE', ( #118 ), #170, .T. ) ;
#2 = ORIENTED_EDGE ( 'NONE', *, *, #122, .T. ) ;
#3 = EDGE_CURVE ( 'NONE', #216, #6, #174, .T. ) ;
#4 = ADVANCED_FACE ( 'NONE', ( #117 ), #89, .F. ) ;
#5 = EDGE_LOOP ( 'NONE', ( #8, #64 ) ) ;
#6 = VERTEX_POINT ( 'NONE', #127 ) ;
#7 = ORIENTED_EDGE ( 'NONE', *, *, #3, .T. ) ;
#8 = ORIENTED_EDGE ( 'NONE', *, *, #75, .F. ) ;
#9 = APPROVAL_STATUS ( 'not_yet_approved' ) ;
#10 = ORIENTED_EDGE ( 'NONE', *, *, #24, .T. ) ;
#11 = ORIENTED_EDGE ( 'NONE', *, *, #24, .F. ) ;
#12 = ORIENTED_EDGE ( 'NONE', *, *, #49, .T. ) ;
#13 = VERTEX_POINT ( 'NONE', #173 ) ;
#14 = EDGE_CURVE ( 'NONE', #123, #6, #102, .T. ) ;
#15 = ADVANCED_FACE ( 'NONE', ( #86 ), #99, .T. ) ;
#16 = EDGE_LOOP ( 'NONE', ( #65, #10, #12, #39 ) ) ;
#17 = ORIENTED_EDGE ( 'NONE', *, *, #69, .F. ) ;
#18 = EDGE_LOOP ( 'NONE', ( #17, #27, #26, #11 ) ) ;
#19 = ORIENTED_EDGE ( 'NONE', *, *, #14, .T. ) ;
#20 = EDGE_CURVE ( 'NONE', #216, #123, #108, .T. ) ;
#21 = EDGE_CURVE ( 'NONE', #78, #77, #107, .T. ) ;
#22 = ORIENTED_EDGE ( 'NONE', *, *, #20, .T. ) ;
#23 = ORIENTED_EDGE ( 'NONE', *, *, #3, .F. ) ;
#24 = EDGE_CURVE ( 'NONE', #46, #153, #192, .T. ) ;
#25 = EDGE_LOOP ( 'NONE', ( #23, #22, #19 ) ) ;
#26 = ORIENTED_EDGE ( 'NONE', *, *, #66, .T. ) ;
#27 = ORIENTED_EDGE ( 'NONE', *, *, #21, .T. ) ;
#28 = ADVANCED_FACE ( 'NONE', ( #200 ), #91, .T. ) ;
#29 = ADVANCED_FACE ( 'NONE', ( #187 ), #194, .T. ) ;
#30 = ORIENTED_EDGE ( 'NONE', *, *, #73, .F. ) ;
#31 = EDGE_CURVE ( 'NONE', #13, #152, #193, .T. ) ;
#32 = ORIENTED_EDGE ( 'NONE', *, *, #20, .F. ) ;
#33 = ADVANCED_FACE ( 'NONE', ( #92 ), #218, .T. ) ;
#34 = ORIENTED_EDGE ( 'NONE', *, *, #31, .T. ) ;
#35 = APPROVAL_ROLE ( '' ) ;
#36 = APPROVAL ( #9, 'UNSPECIFIED' ) ;
#37 = ORIENTED_EDGE ( 'NONE', *, *, #42, .T. ) ;
#38 = APPROVAL_PERSON_ORGANIZATION ( #70, #36, #35 ) ;
#39 = ORIENTED_EDGE ( 'NONE', *, *, #31, .F. ) ;
#40 = CLOSED_SHELL ( 'NONE', ( #215, #48, #54, #1, #28, #4, #29, #15, #33 ) ) ;
#41 = EDGE_LOOP ( 'NONE', ( #30, #32, #37, #34 ) ) ;
#42 = EDGE_CURVE ( 'NONE', #216, #13, #168, .T. ) ;
#43 = EDGE_CURVE ( 'NONE', #152, #13, #199, .T. ) ;
#44 = EDGE_LOOP ( 'NONE', ( #52, #60, #67, #63 ) ) ;
#45 = ORIENTED_EDGE ( 'NONE', *, *, #73, .T. ) ;
#46 = VERTEX_POINT ( 'NONE', #222 ) ;
#47 = ORIENTED_EDGE ( 'NONE', *, *, #42, .F. ) ;
#48 = ADVANCED_FACE ( 'NONE', ( #169 ), #157, .T. ) ;
#49 = EDGE_CURVE ( 'NONE', #153, #152, #208, .T. ) ;
#50 = ORIENTED_EDGE ( 'NONE', *, *, #43, .F. ) ;
#51 = ORIENTED_EDGE ( 'NONE', *, *, #49, .F. ) ;
#52 = ORIENTED_EDGE ( 'NONE', *, *, #75, .T. ) ;
#53 = EDGE_CURVE ( 'NONE', #153, #46, #209, .T. ) ;
#54 = ADVANCED_FACE ( 'NONE', ( #155 ), #219, .T. ) ;
#55 = EDGE_CURVE ( 'NONE', #46, #13, #237, .T. ) ;
#56 = ORIENTED_EDGE ( 'NONE', *, *, #55, .T. ) ;
#57 = APPLICATION_PROTOCOL_DEFINITION ( 'international standard', 'config_control_design', 1994, #58 ) ;
#58 = APPLICATION_CONTEXT ( 'configuration controlled 3d designs of mechanical parts and assemblies' ) ;
#59 = CC_DESIGN_PERSON_AND_ORGANIZATION_ASSIGNMENT ( #61, #76, ( #114 ) ) ;
#60 = ORIENTED_EDGE ( 'NONE', *, *, #69, .T. ) ;
#61 = PERSON_AND_ORGANIZATION ( #113, #112 ) ;
#62 = EDGE_LOOP ( 'NONE', ( #2, #7, #68 ) ) ;
#63 = ORIENTED_EDGE ( 'NONE', *, *, #66, .F. ) ;
#64 = ORIENTED_EDGE ( 'NONE', *, *, #21, .F. ) ;
#65 = ORIENTED_EDGE ( 'NONE', *, *, #55, .F. ) ;
#66 = EDGE_CURVE ( 'NONE', #77, #153, #235, .T. ) ;
#67 = ORIENTED_EDGE ( 'NONE', *, *, #53, .F. ) ;
#68 = ORIENTED_EDGE ( 'NONE', *, *, #14, .F. ) ;
#69 = EDGE_CURVE ( 'NONE', #78, #46, #205, .T. ) ;
#70 = PERSON_AND_ORGANIZATION ( #113, #112 ) ;
#71 = PRODUCT_DEFINITION ( 'UNKNOWN', '', #261, #72 ) ;
#72 = DESIGN_CONTEXT ( 'detailed design', #58, 'design' ) ;
#73 = EDGE_CURVE ( 'NONE', #123, #152, #146, .T. ) ;
#74 = ORIENTED_EDGE ( 'NONE', *, *, #43, .T. ) ;
#75 = EDGE_CURVE ( 'NONE', #77, #78, #163, .T. ) ;
#76 = PERSON_AND_ORGANIZATION_ROLE ( 'design_owner' ) ;
#77 = VERTEX_POINT ( 'NONE', #140 ) ;
#78 = VERTEX_POINT ( 'NONE', #136 ) ;
#79 = DIRECTION ( 'NONE',  ( 1.000000000000000000, 0.0000000000000000000, 0.0000000000000000000 ) ) ;
#80 = DIRECTION ( 'NONE',  ( 0.0000000000000000000, 0.0000000000000000000, 1.000000000000000000 ) ) ;
#81 = AXIS2_PLACEMENT_3D ( 'NONE', #120, #80, #79 ) ;
#82 = APPLICATION_CONTEXT ( 'configuration controlled 3d designs of mechanical parts and assemblies' ) ;
#83 = ADVANCED_BREP_SHAPE_REPRESENTATION ( '24954-E0W', ( #125, #81 ), #84 ) ;
#84 =( GEOMETRIC_REPRESENTATION_CONTEXT ( 3 ) GLOBAL_UNCERTAINTY_ASSIGNED_CONTEXT ( ( #238 ) ) GLOBAL_UNIT_ASSIGNED_CONTEXT ( ( #119, #240, #239 ) ) REPRESENTATION_CONTEXT ( 'NONE', 'WORKASPACE' ) );
#85 = CARTESIAN_POINT ( 'NONE',  ( -0.006000391355407211400, 7.348360067030889900E-019, -14.85999902161147900 ) ) ;
#86 = FACE_OUTER_BOUND ( 'NONE', #16, .T. ) ;
#87 = DIRECTION ( 'NONE',  ( 1.000000000000000000, 0.0000000000000000000, 0.0000000000000000000 ) ) ;
#88 = DIRECTION ( 'NONE',  ( 1.224646799147353200E-016, 1.000000000000000000, 0.0000000000000000000 ) ) ;
#89 = PLANE ( 'NONE',  #106 ) ;
#90 = AXIS2_PLACEMENT_3D ( 'NONE', #101, #202, #201 ) ;
#91 = TOROIDAL_SURFACE ( 'NONE', #185, 0.006000391355407211400, 18.39999999999999900 ) ;
#92 = FACE_OUTER_BOUND ( 'NONE', #41, .T. ) ;
#93 = CARTESIAN_POINT ( 'NONE',  ( 0.0000000000000000000, 0.0000000000000000000, -3.540000000000001400 ) ) ;
#94 = CARTESIAN_POINT ( 'NONE',  ( 0.0000000000000000000, 0.0000000000000000000, 35.17507380289622200 ) ) ;
#95 = DIRECTION ( 'NONE',  ( 0.0000000000000000000, 0.0000000000000000000, -1.000000000000000000 ) ) ;
#96 = DIRECTION ( 'NONE',  ( 0.0000000000000000000, -1.000000000000000000, 0.0000000000000000000 ) ) ;
#97 = CARTESIAN_POINT ( 'NONE',  ( 0.006000391355407211400, 0.0000000000000000000, -14.85999902161147900 ) ) ;
#98 = AXIS2_PLACEMENT_3D ( 'NONE', #97, #96, #95 ) ;
#99 = CYLINDRICAL_SURFACE ( 'NONE', #111, 12.69999999999999900 ) ;
#100 = DIRECTION ( 'NONE',  ( -0.0000000000000000000, -0.0000000000000000000, 1.000000000000000000 ) ) ;
#101 = CARTESIAN_POINT ( 'NONE',  ( 0.0000000000000000000, 0.0000000000000000000, -1.406643335493916500 ) ) ;
#102 = CIRCLE ( 'NONE', #98, 18.39999999999999500 ) ;
#103 = DIRECTION ( 'NONE',  ( 1.000000000000000000, 0.0000000000000000000, 0.0000000000000000000 ) ) ;
#104 = DIRECTION ( 'NONE',  ( 0.0000000000000000000, -0.0000000000000000000, 1.000000000000000000 ) ) ;
#105 = CARTESIAN_POINT ( 'NONE',  ( 0.0000000000000000000, 0.0000000000000000000, -3.539999999999999600 ) ) ;
#106 = AXIS2_PLACEMENT_3D ( 'NONE', #105, #104, #103 ) ;
#107 = CIRCLE ( 'NONE', #197, 12.55857864376269000 ) ;
#108 = CIRCLE ( 'NONE', #90, 12.55857864376269500 ) ;
#109 = CARTESIAN_POINT ( 'NONE',  ( 0.0000000000000000000, 0.0000000000000000000, -14.85999902161147900 ) ) ;
#110 = DIRECTION ( 'NONE',  ( -1.000000000000000000, 1.224646799147353200E-016, 0.0000000000000000000 ) ) ;
#111 = AXIS2_PLACEMENT_3D ( 'NONE', #94, #100, #172 ) ;
#112 = ORGANIZATION ( 'UNSPECIFIED', 'UNSPECIFIED', '' ) ;
#113 = PERSON ( 'UNSPECIFIED', 'UNSPECIFIED', 'UNSPECIFIED', ('UNSPECIFIED'), ('UNSPECIFIED'), ('UNSPECIFIED') ) ;
#114 = PRODUCT ( '24954-E0W', '24954-E0W', '', ( #115 ) ) ;
#115 = MECHANICAL_CONTEXT ( 'NONE', #82, 'mechanical' ) ;
#116 = APPLICATION_PROTOCOL_DEFINITION ( 'international standard', 'config_control_design', 1994, #82 ) ;
#117 = FACE_OUTER_BOUND ( 'NONE', #5, .T. ) ;
#118 = FACE_OUTER_BOUND ( 'NONE', #62, .T. ) ;
#119 =( LENGTH_UNIT ( ) NAMED_UNIT ( * ) SI_UNIT ( .MILLI., .METRE. ) );
#120 = CARTESIAN_POINT ( 'NONE',  ( 0.0000000000000000000, 0.0000000000000000000, 0.0000000000000000000 ) ) ;
#121 = ORIENTED_EDGE ( 'NONE', *, *, #122, .F. ) ;
#122 = EDGE_CURVE ( 'NONE', #123, #216, #139, .T. ) ;
#123 = VERTEX_POINT ( 'NONE', #133 ) ;
#124 = ORIENTED_EDGE ( 'NONE', *, *, #53, .T. ) ;
#125 = MANIFOLD_SOLID_BREP ( '24996-001-1-solid1', #40 ) ;
#126 = AXIS2_PLACEMENT_3D ( 'NONE', #176, #175, #87 ) ;
#127 = CARTESIAN_POINT ( 'NONE',  ( 0.0000000000000000000, 0.0000000000000000000, 3.540000000000000000 ) ) ;
#128 = AXIS2_PLACEMENT_3D ( 'NONE', #132, #134, #142 ) ;
#129 = DIRECTION ( 'NONE',  ( 1.000000000000000000, 0.0000000000000000000, 0.0000000000000000000 ) ) ;
#130 = DIRECTION ( 'NONE',  ( -0.0000000000000000000, -0.0000000000000000000, 1.000000000000000000 ) ) ;
#131 = AXIS2_PLACEMENT_3D ( 'NONE', #141, #130, #129 ) ;
#132 = CARTESIAN_POINT ( 'NONE',  ( 0.0000000000000000000, 0.0000000000000000000, -1.548064691731229700 ) ) ;
#133 = CARTESIAN_POINT ( 'NONE',  ( 12.55857864376269200, 0.0000000000000000000, -1.406643335493917400 ) ) ;
#134 = DIRECTION ( 'NONE',  ( 0.0000000000000000000, 0.0000000000000000000, -1.000000000000000000 ) ) ;
#135 = CARTESIAN_POINT ( 'NONE',  ( 12.69999999999999800, 0.0000000000000000000, -1.548064691731229700 ) ) ;
#136 = CARTESIAN_POINT ( 'NONE',  ( -12.55857864376269000, 1.546641874354783400E-015, -3.540000000000001400 ) ) ;
#137 = DIRECTION ( 'NONE',  ( 1.000000000000000000, 0.0000000000000000000, 0.0000000000000000000 ) ) ;
#138 = DIRECTION ( 'NONE',  ( -0.0000000000000000000, -0.0000000000000000000, 1.000000000000000000 ) ) ;
#139 = CIRCLE ( 'NONE', #131, 12.55857864376269500 ) ;
#140 = CARTESIAN_POINT ( 'NONE',  ( 12.55857864376269000, 0.0000000000000000000, -3.540000000000001400 ) ) ;
#141 = CARTESIAN_POINT ( 'NONE',  ( 0.0000000000000000000, 0.0000000000000000000, -1.406643335493916500 ) ) ;
#142 = DIRECTION ( 'NONE',  ( -1.000000000000000000, 0.0000000000000000000, 0.0000000000000000000 ) ) ;
#143 = DIRECTION ( 'NONE',  ( 0.7071067811865214800, 8.659560562354613600E-017, -0.7071067811865735500 ) ) ;
#144 = VECTOR ( 'NONE', #143, 1000.000000000000000 ) ;
#145 = CARTESIAN_POINT ( 'NONE',  ( 12.69999999999999800, 1.555301434917138200E-015, -1.548064691731229700 ) ) ;
#146 = LINE ( 'NONE', #145, #144 ) ;
#147 = DIRECTION ( 'NONE',  ( -0.7071067811865388000, 8.659560562354826900E-017, 0.7071067811865561200 ) ) ;
#148 = VECTOR ( 'NONE', #147, 1000.000000000000100 ) ;
#149 = CONICAL_SURFACE ( 'NONE', #128, 12.69999999999999800, 0.7853981633974115300 ) ;
#150 = AXIS2_PLACEMENT_3D ( 'NONE', #234, #138, #137 ) ;
#151 = CARTESIAN_POINT ( 'NONE',  ( 12.69999999999999900, 0.0000000000000000000, -3.398578643762688100 ) ) ;
#152 = VERTEX_POINT ( 'NONE', #135 ) ;
#153 = VERTEX_POINT ( 'NONE', #151 ) ;
#154 = DIRECTION ( 'NONE',  ( 1.000000000000000000, 0.0000000000000000000, 0.0000000000000000000 ) ) ;
#155 = FACE_OUTER_BOUND ( 'NONE', #44, .T. ) ;
#156 = AXIS2_PLACEMENT_3D ( 'NONE', #162, #161, #154 ) ;
#157 = CYLINDRICAL_SURFACE ( 'NONE', #156, 12.69999999999999900 ) ;
#158 = DIRECTION ( 'NONE',  ( 1.000000000000000000, 0.0000000000000000000, 0.0000000000000000000 ) ) ;
#159 = DIRECTION ( 'NONE',  ( -0.0000000000000000000, -0.0000000000000000000, 1.000000000000000000 ) ) ;
#160 = CARTESIAN_POINT ( 'NONE',  ( 0.0000000000000000000, 0.0000000000000000000, -3.398578643762688100 ) ) ;
#161 = DIRECTION ( 'NONE',  ( -0.0000000000000000000, -0.0000000000000000000, 1.000000000000000000 ) ) ;
#162 = CARTESIAN_POINT ( 'NONE',  ( 0.0000000000000000000, 0.0000000000000000000, 35.17507380289622200 ) ) ;
#163 = CIRCLE ( 'NONE', #150, 12.55857864376269000 ) ;
#164 = DIRECTION ( 'NONE',  ( 1.000000000000000000, 0.0000000000000000000, 0.0000000000000000000 ) ) ;
#165 = DIRECTION ( 'NONE',  ( -0.7071067811865214800, 0.0000000000000000000, -0.7071067811865735500 ) ) ;
#166 = VECTOR ( 'NONE', #165, 1000.000000000000000 ) ;
#167 = CARTESIAN_POINT ( 'NONE',  ( -12.69999999999999800, 0.0000000000000000000, -1.548064691731229700 ) ) ;
#168 = LINE ( 'NONE', #167, #166 ) ;
#169 = FACE_OUTER_BOUND ( 'NONE', #217, .T. ) ;
#170 = TOROIDAL_SURFACE ( 'NONE', #126, 0.006000391355407211400, 18.39999999999999900 ) ;
#171 = AXIS2_PLACEMENT_3D ( 'NONE', #85, #88, #110 ) ;
#172 = DIRECTION ( 'NONE',  ( 1.000000000000000000, 0.0000000000000000000, 0.0000000000000000000 ) ) ;
#173 = CARTESIAN_POINT ( 'NONE',  ( -12.69999999999999800, 1.555301434917138200E-015, -1.548064691731229700 ) ) ;
#174 = CIRCLE ( 'NONE', #171, 18.39999999999999900 ) ;
#175 = DIRECTION ( 'NONE',  ( -0.0000000000000000000, -0.0000000000000000000, 1.000000000000000000 ) ) ;
#176 = CARTESIAN_POINT ( 'NONE',  ( 0.0000000000000000000, 0.0000000000000000000, -14.85999902161147900 ) ) ;
#177 = AXIS2_PLACEMENT_3D ( 'NONE', #220, #181, #180 ) ;
#178 = DIRECTION ( 'NONE',  ( 1.000000000000000000, 0.0000000000000000000, 0.0000000000000000000 ) ) ;
#179 = DIRECTION ( 'NONE',  ( -0.0000000000000000000, -0.0000000000000000000, 1.000000000000000000 ) ) ;
#180 = DIRECTION ( 'NONE',  ( -1.000000000000000000, 0.0000000000000000000, 0.0000000000000000000 ) ) ;
#181 = DIRECTION ( 'NONE',  ( 0.0000000000000000000, 0.0000000000000000000, -1.000000000000000000 ) ) ;
#182 = DIRECTION ( 'NONE',  ( 1.000000000000000000, 0.0000000000000000000, 0.0000000000000000000 ) ) ;
#183 = DIRECTION ( 'NONE',  ( -0.0000000000000000000, -0.0000000000000000000, 1.000000000000000000 ) ) ;
#184 = CARTESIAN_POINT ( 'NONE',  ( 0.0000000000000000000, 0.0000000000000000000, -1.548064691731229700 ) ) ;
#185 = AXIS2_PLACEMENT_3D ( 'NONE', #109, #183, #182 ) ;
#186 = AXIS2_PLACEMENT_3D ( 'NONE', #198, #179, #178 ) ;
#187 = FACE_OUTER_BOUND ( 'NONE', #18, .T. ) ;
#188 = DIRECTION ( 'NONE',  ( 1.000000000000000000, 0.0000000000000000000, 0.0000000000000000000 ) ) ;
#189 = DIRECTION ( 'NONE',  ( -0.0000000000000000000, -0.0000000000000000000, 1.000000000000000000 ) ) ;
#190 = CARTESIAN_POINT ( 'NONE',  ( 0.0000000000000000000, 0.0000000000000000000, -3.398578643762688100 ) ) ;
#191 = AXIS2_PLACEMENT_3D ( 'NONE', #190, #189, #188 ) ;
#192 = CIRCLE ( 'NONE', #191, 12.69999999999999900 ) ;
#193 = CIRCLE ( 'NONE', #225, 12.69999999999999800 ) ;
#194 = CONICAL_SURFACE ( 'NONE', #186, 12.55857864376269000, 0.7853981633974360700 ) ;
#195 = DIRECTION ( 'NONE',  ( 1.000000000000000000, 0.0000000000000000000, 0.0000000000000000000 ) ) ;
#196 = DIRECTION ( 'NONE',  ( -0.0000000000000000000, -0.0000000000000000000, 1.000000000000000000 ) ) ;
#197 = AXIS2_PLACEMENT_3D ( 'NONE', #93, #196, #195 ) ;
#198 = CARTESIAN_POINT ( 'NONE',  ( 0.0000000000000000000, 0.0000000000000000000, -3.540000000000001400 ) ) ;
#199 = CIRCLE ( 'NONE', #226, 12.69999999999999800 ) ;
#200 = FACE_OUTER_BOUND ( 'NONE', #25, .T. ) ;
#201 = DIRECTION ( 'NONE',  ( 1.000000000000000000, 0.0000000000000000000, 0.0000000000000000000 ) ) ;
#202 = DIRECTION ( 'NONE',  ( -0.0000000000000000000, -0.0000000000000000000, 1.000000000000000000 ) ) ;
#203 = DIRECTION ( 'NONE',  ( -0.0000000000000000000, -0.0000000000000000000, 1.000000000000000000 ) ) ;
#204 = CARTESIAN_POINT ( 'NONE',  ( -12.55857864376269000, 1.537982313792428700E-015, -3.540000000000001400 ) ) ;
#205 = LINE ( 'NONE', #204, #148 ) ;
#206 = AXIS2_PLACEMENT_3D ( 'NONE', #160, #203, #210 ) ;
#207 = VECTOR ( 'NONE', #213, 1000.000000000000000 ) ;
#208 = LINE ( 'NONE', #211, #207 ) ;
#209 = CIRCLE ( 'NONE', #206, 12.69999999999999900 ) ;
#210 = DIRECTION ( 'NONE',  ( 1.000000000000000000, 0.0000000000000000000, 0.0000000000000000000 ) ) ;
#211 = CARTESIAN_POINT ( 'NONE',  ( 12.69999999999999900, 0.0000000000000000000, 35.17507380289622200 ) ) ;
#212 = AXIS2_PLACEMENT_3D ( 'NONE', #233, #232, #164 ) ;
#213 = DIRECTION ( 'NONE',  ( -0.0000000000000000000, -0.0000000000000000000, 1.000000000000000000 ) ) ;
#214 = EDGE_LOOP ( 'NONE', ( #121, #45, #74, #47 ) ) ;
#215 = ADVANCED_FACE ( 'NONE', ( #241 ), #149, .T. ) ;
#216 = VERTEX_POINT ( 'NONE', #242 ) ;
#217 = EDGE_LOOP ( 'NONE', ( #124, #56, #50, #51 ) ) ;
#218 = CONICAL_SURFACE ( 'NONE', #177, 12.69999999999999800, 0.7853981633974115300 ) ;
#219 = CONICAL_SURFACE ( 'NONE', #212, 12.55857864376269000, 0.7853981633974360700 ) ;
#220 = CARTESIAN_POINT ( 'NONE',  ( 0.0000000000000000000, 0.0000000000000000000, -1.548064691731229700 ) ) ;
#221 = CARTESIAN_POINT ( 'NONE',  ( 0.0000000000000000000, 0.0000000000000000000, -1.548064691731229700 ) ) ;
#222 = CARTESIAN_POINT ( 'NONE',  ( -12.69999999999999900, 1.555301434917138400E-015, -3.398578643762688100 ) ) ;
#223 = DIRECTION ( 'NONE',  ( 1.000000000000000000, 0.0000000000000000000, 0.0000000000000000000 ) ) ;
#224 = DIRECTION ( 'NONE',  ( -0.0000000000000000000, -0.0000000000000000000, 1.000000000000000000 ) ) ;
#225 = AXIS2_PLACEMENT_3D ( 'NONE', #184, #224, #223 ) ;
#226 = AXIS2_PLACEMENT_3D ( 'NONE', #221, #159, #158 ) ;
#227 = DIRECTION ( 'NONE',  ( -0.0000000000000000000, -0.0000000000000000000, 1.000000000000000000 ) ) ;
#228 = VECTOR ( 'NONE', #227, 1000.000000000000000 ) ;
#229 = DIRECTION ( 'NONE',  ( 0.7071067811865388000, 0.0000000000000000000, 0.7071067811865561200 ) ) ;
#230 = VECTOR ( 'NONE', #229, 1000.000000000000100 ) ;
#231 = CARTESIAN_POINT ( 'NONE',  ( 12.55857864376269000, 0.0000000000000000000, -3.540000000000001400 ) ) ;
#232 = DIRECTION ( 'NONE',  ( -0.0000000000000000000, -0.0000000000000000000, 1.000000000000000000 ) ) ;
#233 = CARTESIAN_POINT ( 'NONE',  ( 0.0000000000000000000, 0.0000000000000000000, -3.540000000000001400 ) ) ;
#234 = CARTESIAN_POINT ( 'NONE',  ( 0.0000000000000000000, 0.0000000000000000000, -3.540000000000001400 ) ) ;
#235 = LINE ( 'NONE', #231, #230 ) ;
#236 = CARTESIAN_POINT ( 'NONE',  ( -12.69999999999999900, 1.555301434917138400E-015, 35.17507380289622200 ) ) ;
#237 = LINE ( 'NONE', #236, #228 ) ;
#238 = UNCERTAINTY_MEASURE_WITH_UNIT (LENGTH_MEASURE( 1.000000000000000100E-005 ), #119, 'distance_accuracy_value', 'NONE');
#239 =( NAMED_UNIT ( * ) SI_UNIT ( $, .STERADIAN. ) SOLID_ANGLE_UNIT ( ) );
#240 =( NAMED_UNIT ( * ) PLANE_ANGLE_UNIT ( ) SI_UNIT ( $, .RADIAN. ) );
#241 = FACE_OUTER_BOUND ( 'NONE', #214, .T. ) ;
#242 = CARTESIAN_POINT ( 'NONE',  ( -12.55857864376269200, 1.537982313792428900E-015, -1.406643335493917400 ) ) ;
#243 = LOCAL_TIME ( 10, 6, 20.00000000000000000, #248 ) ;
#244 = CC_DESIGN_PERSON_AND_ORGANIZATION_ASSIGNMENT ( #251, #250, ( #71 ) ) ;
#245 = CC_DESIGN_APPROVAL ( #36, ( #71 ) ) ;
#246 = APPROVAL_DATE_TIME ( #249, #36 ) ;
#247 = CALENDAR_DATE ( 2012, 1, 10 ) ;
#248 = COORDINATED_UNIVERSAL_TIME_OFFSET ( 5, 0, .BEHIND. ) ;
#249 = DATE_AND_TIME ( #247, #243 ) ;
#250 = PERSON_AND_ORGANIZATION_ROLE ( 'creator' ) ;
#251 = PERSON_AND_ORGANIZATION ( #113, #112 ) ;
#252 = CALENDAR_DATE ( 2012, 1, 10 ) ;
#253 = COORDINATED_UNIVERSAL_TIME_OFFSET ( 5, 0, .BEHIND. ) ;
#254 = CC_DESIGN_DATE_AND_TIME_ASSIGNMENT ( #256, #255, ( #71 ) ) ;
#255 = DATE_TIME_ROLE ( 'creation_date' ) ;
#256 = DATE_AND_TIME ( #252, #257 ) ;
#257 = LOCAL_TIME ( 10, 6, 20.00000000000000000, #253 ) ;
#258 = APPROVAL ( #259, 'UNSPECIFIED' ) ;
#259 = APPROVAL_STATUS ( 'not_yet_approved' ) ;
#260 = PERSON_AND_ORGANIZATION ( #113, #112 ) ;
#261 = PRODUCT_DEFINITION_FORMATION_WITH_SPECIFIED_SOURCE ( 'ANY', '', #114, .NOT_KNOWN. ) ;
#262 = SHAPE_DEFINITION_REPRESENTATION ( #263, #83 ) ;
#263 = PRODUCT_DEFINITION_SHAPE ( 'NONE', 'NONE',  #71 ) ;
#264 = PRODUCT_RELATED_PRODUCT_CATEGORY ( 'detail', '', ( #114 ) ) ;
#265 = CC_DESIGN_SECURITY_CLASSIFICATION ( #286, ( #261 ) ) ;
#266 = CC_DESIGN_APPROVAL ( #274, ( #286 ) ) ;
#267 = APPROVAL_DATE_TIME ( #268, #274 ) ;
#268 = DATE_AND_TIME ( #269, #270 ) ;
#269 = CALENDAR_DATE ( 2012, 1, 10 ) ;
#270 = LOCAL_TIME ( 10, 6, 20.00000000000000000, #271 ) ;
#271 = COORDINATED_UNIVERSAL_TIME_OFFSET ( 5, 0, .BEHIND. ) ;
#272 = APPROVAL_PERSON_ORGANIZATION ( #276, #274, #273 ) ;
#273 = APPROVAL_ROLE ( '' ) ;
#274 = APPROVAL ( #275, 'UNSPECIFIED' ) ;
#275 = APPROVAL_STATUS ( 'not_yet_approved' ) ;
#276 = PERSON_AND_ORGANIZATION ( #113, #112 ) ;
#277 = CC_DESIGN_DATE_AND_TIME_ASSIGNMENT ( #279, #278, ( #286 ) ) ;
#278 = DATE_TIME_ROLE ( 'classification_date' ) ;
#279 = DATE_AND_TIME ( #280, #281 ) ;
#280 = CALENDAR_DATE ( 2012, 1, 10 ) ;
#281 = LOCAL_TIME ( 10, 6, 20.00000000000000000, #282 ) ;
#282 = COORDINATED_UNIVERSAL_TIME_OFFSET ( 5, 0, .BEHIND. ) ;
#283 = CC_DESIGN_PERSON_AND_ORGANIZATION_ASSIGNMENT ( #285, #284, ( #286 ) ) ;
#284 = PERSON_AND_ORGANIZATION_ROLE ( 'classification_officer' ) ;
#285 = PERSON_AND_ORGANIZATION ( #113, #112 ) ;
#286 = SECURITY_CLASSIFICATION ( '', '', #287 ) ;
#287 = SECURITY_CLASSIFICATION_LEVEL ( 'unclassified' ) ;
#288 = CC_DESIGN_PERSON_AND_ORGANIZATION_ASSIGNMENT ( #290, #289, ( #261 ) ) ;
#289 = PERSON_AND_ORGANIZATION_ROLE ( 'design_supplier' ) ;
#290 = PERSON_AND_ORGANIZATION ( #113, #112 ) ;
#291 = CC_DESIGN_PERSON_AND_ORGANIZATION_ASSIGNMENT ( #293, #292, ( #261 ) ) ;
#292 = PERSON_AND_ORGANIZATION_ROLE ( 'creator' ) ;
#293 = PERSON_AND_ORGANIZATION ( #113, #112 ) ;
#294 = CC_DESIGN_APPROVAL ( #258, ( #261 ) ) ;
#295 = APPROVAL_DATE_TIME ( #296, #258 ) ;
#296 = DATE_AND_TIME ( #297, #298 ) ;
#297 = CALENDAR_DATE ( 2012, 1, 10 ) ;
#298 = LOCAL_TIME ( 10, 6, 20.00000000000000000, #299 ) ;
#299 = COORDINATED_UNIVERSAL_TIME_OFFSET ( 5, 0, .BEHIND. ) ;
#300 = APPROVAL_PERSON_ORGANIZATION ( #260, #258, #301 ) ;
#301 = APPROVAL_ROLE ( '' ) ;
ENDSEC;
END-ISO-10303-21;
