ISO-10303-21;
HEADER;
FILE_DESCRIPTION (( 'STEP AP203' ),
    '1' );
FILE_NAME ('Web Model 64402MX_43754.step',
    '2017-10-30T13:11:19',
    ( '' ),
    ( '' ),
    'SwSTEP 2.0',
    'SolidWorks 2016',
    '' );
FILE_SCHEMA (( 'CONFIG_CONTROL_DESIGN' ));
ENDSEC;

DATA;
#1 = DATE_AND_TIME ( #65, #102 ) ;
#2 = VERTEX_POINT ( 'NONE', #4 ) ;
#3 = CARTESIAN_POINT ( 'NONE',  ( 12.49999999999999800, -12.49999999999999600, -4.750000000000000000 ) ) ;
#4 = CARTESIAN_POINT ( 'NONE',  ( -12.50000000000000200, -12.50000000000000000, -4.750000000000000000 ) ) ;
#5 = VERTEX_POINT ( 'NONE', #79 ) ;
#6 = PERSON_AND_ORGANIZATION_ROLE ( 'classification_officer' ) ;
#7 = DIRECTION ( 'NONE',  ( 0.0000000000000000000, 0.0000000000000000000, 1.000000000000000000 ) ) ;
#8 = VECTOR ( 'NONE', #50, 1000.000000000000000 ) ;
#9 = CARTESIAN_POINT ( 'NONE',  ( -12.50000000000000200, -12.50000000000000000, 4.750000000000000000 ) ) ;
#10 = ADVANCED_BREP_SHAPE_REPRESENTATION ( 'Web Model 64402MX_43754', ( #151, #206 ), #236 ) ;
#11 = DIRECTION ( 'NONE',  ( -0.0000000000000000000, -0.0000000000000000000, -1.000000000000000000 ) ) ;
#12 = PLANE ( 'NONE',  #167 ) ;
#13 = ORIENTED_EDGE ( 'NONE', *, *, #115, .F. ) ;
#14 = LOCAL_TIME ( 9, 11, 19.00000000000000000, #58 ) ;
#15 = LINE ( 'NONE', #88, #150 ) ;
#16 = EDGE_CURVE ( 'NONE', #94, #226, #178, .T. ) ;
#17 = CARTESIAN_POINT ( 'NONE',  ( -12.50000000000000200, -12.50000000000000000, 4.750000000000000000 ) ) ;
#18 = ORIENTED_EDGE ( 'NONE', *, *, #16, .T. ) ;
#19 =( LENGTH_UNIT ( ) NAMED_UNIT ( * ) SI_UNIT ( .MILLI., .METRE. ) );
#20 = CLOSED_SHELL ( 'NONE', ( #235, #172, #29, #71, #201, #149 ) ) ;
#21 = PLANE ( 'NONE',  #40 ) ;
#22 = SECURITY_CLASSIFICATION ( '', '', #60 ) ;
#23 = LINE ( 'NONE', #28, #205 ) ;
#24 = APPROVAL_ROLE ( '' ) ;
#25 = VERTEX_POINT ( 'NONE', #214 ) ;
#26 = PERSON_AND_ORGANIZATION ( #96, #179 ) ;
#27 = CARTESIAN_POINT ( 'NONE',  ( 12.49999999999999800, 12.50000000000000400, 4.750000000000000000 ) ) ;
#28 = CARTESIAN_POINT ( 'NONE',  ( 12.49999999999999800, 12.50000000000000400, 4.750000000000000000 ) ) ;
#29 = ADVANCED_FACE ( 'NONE', ( #30 ), #21, .F. ) ;
#30 = FACE_OUTER_BOUND ( 'NONE', #142, .T. ) ;
#31 = CC_DESIGN_APPROVAL ( #67, ( #204 ) ) ;
#32 = EDGE_LOOP ( 'NONE', ( #224, #147, #54, #194 ) ) ;
#33 = VECTOR ( 'NONE', #209, 1000.000000000000000 ) ;
#34 = APPROVAL_PERSON_ORGANIZATION ( #132, #190, #82 ) ;
#35 = CARTESIAN_POINT ( 'NONE',  ( -12.50000000000000200, -12.50000000000000000, 4.750000000000000000 ) ) ;
#36 = EDGE_LOOP ( 'NONE', ( #137, #213, #187, #113 ) ) ;
#37 = DESIGN_CONTEXT ( 'detailed design', #103, 'design' ) ;
#38 = CARTESIAN_POINT ( 'NONE',  ( 12.49999999999999800, -12.49999999999999600, 4.750000000000000000 ) ) ;
#39 = DATE_TIME_ROLE ( 'creation_date' ) ;
#40 = AXIS2_PLACEMENT_3D ( 'NONE', #38, #97, #7 ) ;
#41 = PERSON_AND_ORGANIZATION ( #96, #179 ) ;
#42 = APPROVAL_STATUS ( 'not_yet_approved' ) ;
#43 = CC_DESIGN_DATE_AND_TIME_ASSIGNMENT ( #1, #39, ( #204 ) ) ;
#44 = ORIENTED_EDGE ( 'NONE', *, *, #152, .F. ) ;
#45 = COORDINATED_UNIVERSAL_TIME_OFFSET ( 5, 0, .BEHIND. ) ;
#46 = PLANE ( 'NONE',  #227 ) ;
#47 = ORIENTED_EDGE ( 'NONE', *, *, #123, .T. ) ;
#48 = DIRECTION ( 'NONE',  ( 1.000000000000000000, 1.387778780781445700E-016, -0.0000000000000000000 ) ) ;
#49 = APPROVAL_DATE_TIME ( #100, #211 ) ;
#50 = DIRECTION ( 'NONE',  ( 1.000000000000000000, 1.387778780781445700E-016, -0.0000000000000000000 ) ) ;
#51 = VECTOR ( 'NONE', #192, 1000.000000000000000 ) ;
#52 = DIRECTION ( 'NONE',  ( -0.0000000000000000000, -1.000000000000000000, -0.0000000000000000000 ) ) ;
#53 = PRODUCT_DEFINITION_FORMATION_WITH_SPECIFIED_SOURCE ( 'ANY', '', #62, .NOT_KNOWN. ) ;
#54 = ORIENTED_EDGE ( 'NONE', *, *, #16, .F. ) ;
#55 = LINE ( 'NONE', #136, #59 ) ;
#56 = EDGE_CURVE ( 'NONE', #237, #5, #55, .T. ) ;
#57 = CC_DESIGN_SECURITY_CLASSIFICATION ( #22, ( #53 ) ) ;
#58 = COORDINATED_UNIVERSAL_TIME_OFFSET ( 5, 0, .BEHIND. ) ;
#59 = VECTOR ( 'NONE', #159, 1000.000000000000000 ) ;
#60 = SECURITY_CLASSIFICATION_LEVEL ( 'unclassified' ) ;
#61 = APPROVAL_ROLE ( '' ) ;
#62 = PRODUCT ( 'Web Model 64402MX_43754', 'Web Model 64402MX_43754', '', ( #78 ) ) ;
#63 = DIRECTION ( 'NONE',  ( -1.387778780781445700E-016, 1.000000000000000000, 0.0000000000000000000 ) ) ;
#64 = DIRECTION ( 'NONE',  ( -0.0000000000000000000, -0.0000000000000000000, -1.000000000000000000 ) ) ;
#65 = CALENDAR_DATE ( 2017, 30, 10 ) ;
#66 = LINE ( 'NONE', #87, #234 ) ;
#67 = APPROVAL ( #42, 'UNSPECIFIED' ) ;
#68 = CARTESIAN_POINT ( 'NONE',  ( 12.49999999999999800, -12.49999999999999600, -4.750000000000000000 ) ) ;
#69 = VECTOR ( 'NONE', #120, 1000.000000000000000 ) ;
#70 = EDGE_CURVE ( 'NONE', #2, #94, #92, .T. ) ;
#71 = ADVANCED_FACE ( 'NONE', ( #75 ), #46, .F. ) ;
#72 = VERTEX_POINT ( 'NONE', #9 ) ;
#73 = EDGE_CURVE ( 'NONE', #237, #226, #23, .T. ) ;
#74 = LINE ( 'NONE', #164, #33 ) ;
#75 = FACE_OUTER_BOUND ( 'NONE', #158, .T. ) ;
#76 = DIRECTION ( 'NONE',  ( 1.000000000000000000, 0.0000000000000000000, -0.0000000000000000000 ) ) ;
#77 = CC_DESIGN_DATE_AND_TIME_ASSIGNMENT ( #180, #219, ( #22 ) ) ;
#78 = MECHANICAL_CONTEXT ( 'NONE', #182, 'mechanical' ) ;
#79 = CARTESIAN_POINT ( 'NONE',  ( -12.50000000000000200, 12.50000000000000000, 4.750000000000000000 ) ) ;
#80 = ORIENTED_EDGE ( 'NONE', *, *, #56, .F. ) ;
#81 = AXIS2_PLACEMENT_3D ( 'NONE', #90, #177, #76 ) ;
#82 = APPROVAL_ROLE ( '' ) ;
#83 = FACE_OUTER_BOUND ( 'NONE', #129, .T. ) ;
#84 = DIRECTION ( 'NONE',  ( -1.000000000000000000, -1.387778780781445700E-016, 0.0000000000000000000 ) ) ;
#85 = AXIS2_PLACEMENT_3D ( 'NONE', #17, #95, #228 ) ;
#86 = ORIENTED_EDGE ( 'NONE', *, *, #73, .F. ) ;
#87 = CARTESIAN_POINT ( 'NONE',  ( -12.50000000000000200, -12.50000000000000000, 4.750000000000000000 ) ) ;
#88 = CARTESIAN_POINT ( 'NONE',  ( -12.50000000000000200, -12.50000000000000000, -4.750000000000000000 ) ) ;
#89 = CALENDAR_DATE ( 2017, 30, 10 ) ;
#90 = CARTESIAN_POINT ( 'NONE',  ( 0.0000000000000000000, 0.0000000000000000000, 4.750000000000000000 ) ) ;
#91 = LINE ( 'NONE', #107, #125 ) ;
#92 = LINE ( 'NONE', #140, #8 ) ;
#93 = UNCERTAINTY_MEASURE_WITH_UNIT (LENGTH_MEASURE( 1.000000000000000100E-005 ), #19, 'distance_accuracy_value', 'NONE');
#94 = VERTEX_POINT ( 'NONE', #68 ) ;
#95 = DIRECTION ( 'NONE',  ( 1.000000000000000000, 0.0000000000000000000, 0.0000000000000000000 ) ) ;
#96 = PERSON ( 'UNSPECIFIED', 'UNSPECIFIED', 'UNSPECIFIED', ('UNSPECIFIED'), ('UNSPECIFIED'), ('UNSPECIFIED') ) ;
#97 = DIRECTION ( 'NONE',  ( -1.000000000000000000, 0.0000000000000000000, 0.0000000000000000000 ) ) ;
#98 = ORIENTED_EDGE ( 'NONE', *, *, #112, .T. ) ;
#99 =( NAMED_UNIT ( * ) SI_UNIT ( $, .STERADIAN. ) SOLID_ANGLE_UNIT ( ) );
#100 = DATE_AND_TIME ( #109, #14 ) ;
#101 = EDGE_CURVE ( 'NONE', #72, #25, #119, .T. ) ;
#102 = LOCAL_TIME ( 9, 11, 19.00000000000000000, #216 ) ;
#103 = APPLICATION_CONTEXT ( 'configuration controlled 3d designs of mechanical parts and assemblies' ) ;
#104 = DIRECTION ( 'NONE',  ( 1.000000000000000000, 0.0000000000000000000, -0.0000000000000000000 ) ) ;
#105 = PERSON_AND_ORGANIZATION ( #96, #179 ) ;
#106 = CC_DESIGN_PERSON_AND_ORGANIZATION_ASSIGNMENT ( #131, #161, ( #204 ) ) ;
#107 = CARTESIAN_POINT ( 'NONE',  ( 12.49999999999999800, -12.49999999999999600, 4.750000000000000000 ) ) ;
#108 = DIRECTION ( 'NONE',  ( 1.387778780781445700E-016, -1.000000000000000000, 0.0000000000000000000 ) ) ;
#109 = CALENDAR_DATE ( 2017, 30, 10 ) ;
#110 = VECTOR ( 'NONE', #48, 1000.000000000000000 ) ;
#111 = CC_DESIGN_APPROVAL ( #190, ( #22 ) ) ;
#112 = EDGE_CURVE ( 'NONE', #72, #2, #66, .T. ) ;
#113 = ORIENTED_EDGE ( 'NONE', *, *, #115, .T. ) ;
#114 = CALENDAR_DATE ( 2017, 30, 10 ) ;
#115 = EDGE_CURVE ( 'NONE', #5, #174, #154, .T. ) ;
#116 = PLANE ( 'NONE',  #81 ) ;
#117 = AXIS2_PLACEMENT_3D ( 'NONE', #166, #202, #104 ) ;
#118 = ORIENTED_EDGE ( 'NONE', *, *, #196, .T. ) ;
#119 = LINE ( 'NONE', #171, #110 ) ;
#120 = DIRECTION ( 'NONE',  ( 0.0000000000000000000, 1.000000000000000000, 0.0000000000000000000 ) ) ;
#121 = DIRECTION ( 'NONE',  ( 0.0000000000000000000, 1.000000000000000000, 0.0000000000000000000 ) ) ;
#122 = CARTESIAN_POINT ( 'NONE',  ( 12.49999999999999800, -12.49999999999999600, 4.750000000000000000 ) ) ;
#123 = EDGE_CURVE ( 'NONE', #25, #94, #208, .T. ) ;
#124 = EDGE_LOOP ( 'NONE', ( #118, #188, #203, #221 ) ) ;
#125 = VECTOR ( 'NONE', #121, 1000.000000000000000 ) ;
#126 = EDGE_CURVE ( 'NONE', #174, #2, #15, .T. ) ;
#127 = SHAPE_DEFINITION_REPRESENTATION ( #134, #10 ) ;
#128 = CC_DESIGN_PERSON_AND_ORGANIZATION_ASSIGNMENT ( #148, #231, ( #53 ) ) ;
#129 = EDGE_LOOP ( 'NONE', ( #181, #199, #153, #98 ) ) ;
#130 = CARTESIAN_POINT ( 'NONE',  ( 12.49999999999999800, 12.50000000000000400, 4.750000000000000000 ) ) ;
#131 = PERSON_AND_ORGANIZATION ( #96, #179 ) ;
#132 = PERSON_AND_ORGANIZATION ( #96, #179 ) ;
#133 = APPROVAL_STATUS ( 'not_yet_approved' ) ;
#134 = PRODUCT_DEFINITION_SHAPE ( 'NONE', 'NONE',  #204 ) ;
#135 = LOCAL_TIME ( 9, 11, 19.00000000000000000, #175 ) ;
#136 = CARTESIAN_POINT ( 'NONE',  ( 12.49999999999999800, 12.50000000000000400, 4.750000000000000000 ) ) ;
#137 = ORIENTED_EDGE ( 'NONE', *, *, #126, .T. ) ;
#138 = DIRECTION ( 'NONE',  ( 1.000000000000000000, 0.0000000000000000000, 0.0000000000000000000 ) ) ;
#139 = COORDINATED_UNIVERSAL_TIME_OFFSET ( 5, 0, .BEHIND. ) ;
#140 = CARTESIAN_POINT ( 'NONE',  ( 12.49999999999999800, -12.49999999999999600, -4.750000000000000000 ) ) ;
#141 = CARTESIAN_POINT ( 'NONE',  ( 12.49999999999999800, -12.49999999999999600, 4.750000000000000000 ) ) ;
#142 = EDGE_LOOP ( 'NONE', ( #18, #86, #44, #47 ) ) ;
#143 = DIRECTION ( 'NONE',  ( -0.0000000000000000000, -0.0000000000000000000, -1.000000000000000000 ) ) ;
#144 = CC_DESIGN_PERSON_AND_ORGANIZATION_ASSIGNMENT ( #105, #6, ( #22 ) ) ;
#145 = DATE_AND_TIME ( #200, #135 ) ;
#146 = DIRECTION ( 'NONE',  ( -0.0000000000000000000, -0.0000000000000000000, -1.000000000000000000 ) ) ;
#147 = ORIENTED_EDGE ( 'NONE', *, *, #218, .F. ) ;
#148 = PERSON_AND_ORGANIZATION ( #96, #179 ) ;
#149 = ADVANCED_FACE ( 'NONE', ( #170 ), #233, .F. ) ;
#150 = VECTOR ( 'NONE', #52, 1000.000000000000000 ) ;
#151 = MANIFOLD_SOLID_BREP ( 'Boss-Extrude1', #20 ) ;
#152 = EDGE_CURVE ( 'NONE', #25, #237, #91, .T. ) ;
#153 = ORIENTED_EDGE ( 'NONE', *, *, #101, .F. ) ;
#154 = LINE ( 'NONE', #232, #169 ) ;
#155 = APPROVAL_DATE_TIME ( #223, #67 ) ;
#156 = CARTESIAN_POINT ( 'NONE',  ( 12.49999999999999800, 12.50000000000000400, -4.750000000000000000 ) ) ;
#157 = CC_DESIGN_APPROVAL ( #211, ( #53 ) ) ;
#158 = EDGE_LOOP ( 'NONE', ( #207, #13, #80, #165 ) ) ;
#159 = DIRECTION ( 'NONE',  ( -1.000000000000000000, -1.387778780781445700E-016, 0.0000000000000000000 ) ) ;
#160 = LOCAL_TIME ( 9, 11, 19.00000000000000000, #139 ) ;
#161 = PERSON_AND_ORGANIZATION_ROLE ( 'creator' ) ;
#162 = APPLICATION_PROTOCOL_DEFINITION ( 'international standard', 'config_control_design', 1994, #182 ) ;
#163 = CC_DESIGN_PERSON_AND_ORGANIZATION_ASSIGNMENT ( #41, #230, ( #53 ) ) ;
#164 = CARTESIAN_POINT ( 'NONE',  ( 12.49999999999999800, 12.50000000000000400, -4.750000000000000000 ) ) ;
#165 = ORIENTED_EDGE ( 'NONE', *, *, #73, .T. ) ;
#166 = CARTESIAN_POINT ( 'NONE',  ( 0.0000000000000000000, 0.0000000000000000000, -4.750000000000000000 ) ) ;
#167 = AXIS2_PLACEMENT_3D ( 'NONE', #141, #63, #84 ) ;
#168 = DIRECTION ( 'NONE',  ( 1.000000000000000000, 1.387778780781445700E-016, 0.0000000000000000000 ) ) ;
#169 = VECTOR ( 'NONE', #11, 1000.000000000000000 ) ;
#170 = FACE_OUTER_BOUND ( 'NONE', #32, .T. ) ;
#171 = CARTESIAN_POINT ( 'NONE',  ( 12.49999999999999800, -12.49999999999999600, 4.750000000000000000 ) ) ;
#172 = ADVANCED_FACE ( 'NONE', ( #83 ), #12, .F. ) ;
#173 = PRODUCT_RELATED_PRODUCT_CATEGORY ( 'detail', '', ( #62 ) ) ;
#174 = VERTEX_POINT ( 'NONE', #222 ) ;
#175 = COORDINATED_UNIVERSAL_TIME_OFFSET ( 5, 0, .BEHIND. ) ;
#176 = VECTOR ( 'NONE', #143, 1000.000000000000000 ) ;
#177 = DIRECTION ( 'NONE',  ( 0.0000000000000000000, -0.0000000000000000000, 1.000000000000000000 ) ) ;
#178 = LINE ( 'NONE', #3, #69 ) ;
#179 = ORGANIZATION ( 'UNSPECIFIED', 'UNSPECIFIED', '' ) ;
#180 = DATE_AND_TIME ( #89, #183 ) ;
#181 = ORIENTED_EDGE ( 'NONE', *, *, #70, .T. ) ;
#182 = APPLICATION_CONTEXT ( 'configuration controlled 3d designs of mechanical parts and assemblies' ) ;
#183 = LOCAL_TIME ( 9, 11, 19.00000000000000000, #45 ) ;
#184 = APPLICATION_PROTOCOL_DEFINITION ( 'international standard', 'config_control_design', 1994, #103 ) ;
#185 = APPROVAL_STATUS ( 'not_yet_approved' ) ;
#186 = FACE_OUTER_BOUND ( 'NONE', #36, .T. ) ;
#187 = ORIENTED_EDGE ( 'NONE', *, *, #196, .F. ) ;
#188 = ORIENTED_EDGE ( 'NONE', *, *, #101, .T. ) ;
#189 = PERSON_AND_ORGANIZATION ( #96, #179 ) ;
#190 = APPROVAL ( #133, 'UNSPECIFIED' ) ;
#191 = FACE_OUTER_BOUND ( 'NONE', #124, .T. ) ;
#192 = DIRECTION ( 'NONE',  ( -0.0000000000000000000, -1.000000000000000000, -0.0000000000000000000 ) ) ;
#193 = CARTESIAN_POINT ( 'NONE',  ( 0.0000000000000000000, 0.0000000000000000000, 0.0000000000000000000 ) ) ;
#194 = ORIENTED_EDGE ( 'NONE', *, *, #70, .F. ) ;
#195 = DIRECTION ( 'NONE',  ( 0.0000000000000000000, 0.0000000000000000000, 1.000000000000000000 ) ) ;
#196 = EDGE_CURVE ( 'NONE', #5, #72, #217, .T. ) ;
#197 = APPROVAL_PERSON_ORGANIZATION ( #198, #211, #61 ) ;
#198 = PERSON_AND_ORGANIZATION ( #96, #179 ) ;
#199 = ORIENTED_EDGE ( 'NONE', *, *, #123, .F. ) ;
#200 = CALENDAR_DATE ( 2017, 30, 10 ) ;
#201 = ADVANCED_FACE ( 'NONE', ( #191 ), #116, .T. ) ;
#202 = DIRECTION ( 'NONE',  ( 0.0000000000000000000, -0.0000000000000000000, 1.000000000000000000 ) ) ;
#203 = ORIENTED_EDGE ( 'NONE', *, *, #152, .T. ) ;
#204 = PRODUCT_DEFINITION ( 'UNKNOWN', '', #53, #37 ) ;
#205 = VECTOR ( 'NONE', #146, 1000.000000000000000 ) ;
#206 = AXIS2_PLACEMENT_3D ( 'NONE', #193, #195, #138 ) ;
#207 = ORIENTED_EDGE ( 'NONE', *, *, #218, .T. ) ;
#208 = LINE ( 'NONE', #122, #176 ) ;
#209 = DIRECTION ( 'NONE',  ( -1.000000000000000000, -1.387778780781445700E-016, 0.0000000000000000000 ) ) ;
#210 = PLANE ( 'NONE',  #85 ) ;
#211 = APPROVAL ( #185, 'UNSPECIFIED' ) ;
#212 = APPROVAL_DATE_TIME ( #145, #190 ) ;
#213 = ORIENTED_EDGE ( 'NONE', *, *, #112, .F. ) ;
#214 = CARTESIAN_POINT ( 'NONE',  ( 12.49999999999999800, -12.49999999999999600, 4.750000000000000000 ) ) ;
#215 = PERSON_AND_ORGANIZATION_ROLE ( 'design_owner' ) ;
#216 = COORDINATED_UNIVERSAL_TIME_OFFSET ( 5, 0, .BEHIND. ) ;
#217 = LINE ( 'NONE', #35, #51 ) ;
#218 = EDGE_CURVE ( 'NONE', #226, #174, #74, .T. ) ;
#219 = DATE_TIME_ROLE ( 'classification_date' ) ;
#220 =( NAMED_UNIT ( * ) PLANE_ANGLE_UNIT ( ) SI_UNIT ( $, .RADIAN. ) );
#221 = ORIENTED_EDGE ( 'NONE', *, *, #56, .T. ) ;
#222 = CARTESIAN_POINT ( 'NONE',  ( -12.50000000000000200, 12.50000000000000000, -4.750000000000000000 ) ) ;
#223 = DATE_AND_TIME ( #114, #160 ) ;
#224 = ORIENTED_EDGE ( 'NONE', *, *, #126, .F. ) ;
#225 = APPROVAL_PERSON_ORGANIZATION ( #26, #67, #24 ) ;
#226 = VERTEX_POINT ( 'NONE', #156 ) ;
#227 = AXIS2_PLACEMENT_3D ( 'NONE', #27, #108, #168 ) ;
#228 = DIRECTION ( 'NONE',  ( 0.0000000000000000000, 0.0000000000000000000, -1.000000000000000000 ) ) ;
#229 = CC_DESIGN_PERSON_AND_ORGANIZATION_ASSIGNMENT ( #189, #215, ( #62 ) ) ;
#230 = PERSON_AND_ORGANIZATION_ROLE ( 'design_supplier' ) ;
#231 = PERSON_AND_ORGANIZATION_ROLE ( 'creator' ) ;
#232 = CARTESIAN_POINT ( 'NONE',  ( -12.50000000000000200, 12.50000000000000000, 4.750000000000000000 ) ) ;
#233 = PLANE ( 'NONE',  #117 ) ;
#234 = VECTOR ( 'NONE', #64, 1000.000000000000000 ) ;
#235 = ADVANCED_FACE ( 'NONE', ( #186 ), #210, .F. ) ;
#236 =( GEOMETRIC_REPRESENTATION_CONTEXT ( 3 ) GLOBAL_UNCERTAINTY_ASSIGNED_CONTEXT ( ( #93 ) ) GLOBAL_UNIT_ASSIGNED_CONTEXT ( ( #19, #220, #99 ) ) REPRESENTATION_CONTEXT ( 'NONE', 'WORKASPACE' ) );
#237 = VERTEX_POINT ( 'NONE', #130 ) ;
ENDSEC;
END-ISO-10303-21;
