ISO-10303-21;
HEADER;
FILE_DESCRIPTION (( 'STEP AP203' ),
    '1' );
FILE_NAME ('Web Model 12292_12292.step',
    '2019-01-23T20:54:32',
    ( '' ),
    ( '' ),
    'SwSTEP 2.0',
    'SolidWorks 2016',
    '' );
FILE_SCHEMA (( 'CONFIG_CONTROL_DESIGN' ));
ENDSEC;

DATA;
#1 = CARTESIAN_POINT ( 'NONE',  ( 5.000000000000000900, -5.000000000000000000, 0.05000000000000000300 ) ) ;
#2 = ORIENTED_EDGE ( 'NONE', *, *, #170, .T. ) ;
#3 = AXIS2_PLACEMENT_3D ( 'NONE', #23, #64, #172 ) ;
#4 = CC_DESIGN_PERSON_AND_ORGANIZATION_ASSIGNMENT ( #95, #51, ( #217 ) ) ;
#5 = DIRECTION ( 'NONE',  ( -0.0000000000000000000, -0.0000000000000000000, -1.000000000000000000 ) ) ;
#6 = CARTESIAN_POINT ( 'NONE',  ( -4.999999999999999100, -5.000000000000000000, 0.05000000000000000300 ) ) ;
#7 = APPROVAL_PERSON_ORGANIZATION ( #206, #17, #106 ) ;
#8 = EDGE_LOOP ( 'NONE', ( #218, #201, #174, #54 ) ) ;
#9 = ORIENTED_EDGE ( 'NONE', *, *, #184, .T. ) ;
#10 = DATE_TIME_ROLE ( 'creation_date' ) ;
#11 = CC_DESIGN_DATE_AND_TIME_ASSIGNMENT ( #146, #102, ( #175 ) ) ;
#12 = LINE ( 'NONE', #66, #227 ) ;
#13 = ORIENTED_EDGE ( 'NONE', *, *, #58, .F. ) ;
#14 = VERTEX_POINT ( 'NONE', #166 ) ;
#15 = PRODUCT ( 'Web Model 12292_12292', 'Web Model 12292_12292', '', ( #211 ) ) ;
#16 = ADVANCED_FACE ( 'NONE', ( #26 ), #204, .F. ) ;
#17 = APPROVAL ( #49, 'UNSPECIFIED' ) ;
#18 = ORIENTED_EDGE ( 'NONE', *, *, #179, .T. ) ;
#19 = PRODUCT_DEFINITION_FORMATION_WITH_SPECIFIED_SOURCE ( 'ANY', '', #15, .NOT_KNOWN. ) ;
#20 = LINE ( 'NONE', #41, #235 ) ;
#21 = CARTESIAN_POINT ( 'NONE',  ( 5.000000000000000900, -5.000000000000000000, 0.05000000000000000300 ) ) ;
#22 = DIRECTION ( 'NONE',  ( 0.0000000000000000000, 1.000000000000000000, 0.0000000000000000000 ) ) ;
#23 = CARTESIAN_POINT ( 'NONE',  ( -4.999999999999999100, -5.000000000000000000, 0.05000000000000000300 ) ) ;
#24 = CARTESIAN_POINT ( 'NONE',  ( -4.999999999999999100, -5.000000000000000000, -0.05000000000000000300 ) ) ;
#25 = CC_DESIGN_SECURITY_CLASSIFICATION ( #175, ( #19 ) ) ;
#26 = FACE_OUTER_BOUND ( 'NONE', #128, .T. ) ;
#27 = APPLICATION_PROTOCOL_DEFINITION ( 'international standard', 'config_control_design', 1994, #212 ) ;
#28 = PLANE ( 'NONE',  #98 ) ;
#29 = VERTEX_POINT ( 'NONE', #1 ) ;
#30 =( LENGTH_UNIT ( ) NAMED_UNIT ( * ) SI_UNIT ( .MILLI., .METRE. ) );
#31 = UNCERTAINTY_MEASURE_WITH_UNIT (LENGTH_MEASURE( 1.000000000000000100E-005 ), #30, 'distance_accuracy_value', 'NONE');
#32 = CALENDAR_DATE ( 2019, 23, 1 ) ;
#33 = LINE ( 'NONE', #153, #143 ) ;
#34 = SHAPE_DEFINITION_REPRESENTATION ( #191, #44 ) ;
#35 = CARTESIAN_POINT ( 'NONE',  ( 5.000000000000000900, 5.000000000000000000, 0.05000000000000000300 ) ) ;
#36 = LOCAL_TIME ( 15, 54, 32.00000000000000000, #215 ) ;
#37 = VERTEX_POINT ( 'NONE', #115 ) ;
#38 = CC_DESIGN_DATE_AND_TIME_ASSIGNMENT ( #149, #10, ( #217 ) ) ;
#39 = DESIGN_CONTEXT ( 'detailed design', #139, 'design' ) ;
#40 = LINE ( 'NONE', #213, #229 ) ;
#41 = CARTESIAN_POINT ( 'NONE',  ( 5.000000000000000900, -5.000000000000000000, 0.05000000000000000300 ) ) ;
#42 = CC_DESIGN_PERSON_AND_ORGANIZATION_ASSIGNMENT ( #226, #69, ( #175 ) ) ;
#43 = CARTESIAN_POINT ( 'NONE',  ( -4.999999999999999100, -5.000000000000000000, 0.05000000000000000300 ) ) ;
#44 = ADVANCED_BREP_SHAPE_REPRESENTATION ( 'Web Model 12292_12292', ( #113, #48 ), #127 ) ;
#45 = ORIENTED_EDGE ( 'NONE', *, *, #154, .F. ) ;
#46 = ORIENTED_EDGE ( 'NONE', *, *, #85, .T. ) ;
#47 = CARTESIAN_POINT ( 'NONE',  ( -4.999999999999999100, -5.000000000000000000, 0.05000000000000000300 ) ) ;
#48 = AXIS2_PLACEMENT_3D ( 'NONE', #177, #70, #158 ) ;
#49 = APPROVAL_STATUS ( 'not_yet_approved' ) ;
#50 = LINE ( 'NONE', #35, #183 ) ;
#51 = PERSON_AND_ORGANIZATION_ROLE ( 'creator' ) ;
#52 = APPROVAL_ROLE ( '' ) ;
#53 = COORDINATED_UNIVERSAL_TIME_OFFSET ( 5, 0, .BEHIND. ) ;
#54 = ORIENTED_EDGE ( 'NONE', *, *, #72, .T. ) ;
#55 = ORIENTED_EDGE ( 'NONE', *, *, #121, .T. ) ;
#56 = ADVANCED_FACE ( 'NONE', ( #195 ), #100, .F. ) ;
#57 = EDGE_LOOP ( 'NONE', ( #186, #109, #144, #13 ) ) ;
#58 = EDGE_CURVE ( 'NONE', #137, #210, #169, .T. ) ;
#59 = EDGE_LOOP ( 'NONE', ( #126, #18, #55, #9 ) ) ;
#60 = CALENDAR_DATE ( 2019, 23, 1 ) ;
#61 = ORIENTED_EDGE ( 'NONE', *, *, #75, .F. ) ;
#62 = PLANE ( 'NONE',  #124 ) ;
#63 = CARTESIAN_POINT ( 'NONE',  ( -4.999999999999999100, 5.000000000000000000, 0.05000000000000000300 ) ) ;
#64 = DIRECTION ( 'NONE',  ( 0.0000000000000000000, 1.000000000000000000, 0.0000000000000000000 ) ) ;
#65 = DIRECTION ( 'NONE',  ( -1.000000000000000000, -0.0000000000000000000, -0.0000000000000000000 ) ) ;
#66 = CARTESIAN_POINT ( 'NONE',  ( 5.000000000000000900, -5.000000000000000000, 0.05000000000000000300 ) ) ;
#67 = VECTOR ( 'NONE', #225, 1000.000000000000000 ) ;
#68 = ORIENTED_EDGE ( 'NONE', *, *, #233, .T. ) ;
#69 = PERSON_AND_ORGANIZATION_ROLE ( 'classification_officer' ) ;
#70 = DIRECTION ( 'NONE',  ( 0.0000000000000000000, 0.0000000000000000000, 1.000000000000000000 ) ) ;
#71 = APPLICATION_PROTOCOL_DEFINITION ( 'international standard', 'config_control_design', 1994, #139 ) ;
#72 = EDGE_CURVE ( 'NONE', #131, #137, #50, .T. ) ;
#73 = APPROVAL_DATE_TIME ( #236, #94 ) ;
#74 = VECTOR ( 'NONE', #5, 1000.000000000000000 ) ;
#75 = EDGE_CURVE ( 'NONE', #29, #14, #20, .T. ) ;
#76 = LOCAL_TIME ( 15, 54, 32.00000000000000000, #155 ) ;
#77 = ORIENTED_EDGE ( 'NONE', *, *, #82, .T. ) ;
#78 = CARTESIAN_POINT ( 'NONE',  ( 5.000000000000000900, 5.000000000000000000, 0.05000000000000000300 ) ) ;
#79 = LINE ( 'NONE', #188, #74 ) ;
#80 = DIRECTION ( 'NONE',  ( 0.0000000000000000000, 0.0000000000000000000, -1.000000000000000000 ) ) ;
#81 = DIRECTION ( 'NONE',  ( 0.0000000000000000000, -0.0000000000000000000, -1.000000000000000000 ) ) ;
#82 = EDGE_CURVE ( 'NONE', #210, #37, #33, .T. ) ;
#83 = LINE ( 'NONE', #24, #67 ) ;
#84 = DIRECTION ( 'NONE',  ( 0.0000000000000000000, 0.0000000000000000000, -1.000000000000000000 ) ) ;
#85 = EDGE_CURVE ( 'NONE', #14, #137, #157, .T. ) ;
#86 =( NAMED_UNIT ( * ) SI_UNIT ( $, .STERADIAN. ) SOLID_ANGLE_UNIT ( ) );
#87 = FACE_OUTER_BOUND ( 'NONE', #57, .T. ) ;
#88 = PERSON_AND_ORGANIZATION_ROLE ( 'design_owner' ) ;
#89 = DIRECTION ( 'NONE',  ( -1.000000000000000000, 0.0000000000000000000, -0.0000000000000000000 ) ) ;
#90 = PERSON_AND_ORGANIZATION ( #164, #222 ) ;
#91 = ORIENTED_EDGE ( 'NONE', *, *, #72, .F. ) ;
#92 = PRODUCT_RELATED_PRODUCT_CATEGORY ( 'detail', '', ( #15 ) ) ;
#93 = FACE_OUTER_BOUND ( 'NONE', #8, .T. ) ;
#94 = APPROVAL ( #196, 'UNSPECIFIED' ) ;
#95 = PERSON_AND_ORGANIZATION ( #164, #222 ) ;
#96 = EDGE_LOOP ( 'NONE', ( #77, #45, #99, #68 ) ) ;
#97 = CALENDAR_DATE ( 2019, 23, 1 ) ;
#98 = AXIS2_PLACEMENT_3D ( 'NONE', #193, #84, #89 ) ;
#99 = ORIENTED_EDGE ( 'NONE', *, *, #121, .F. ) ;
#100 = PLANE ( 'NONE',  #129 ) ;
#101 = CARTESIAN_POINT ( 'NONE',  ( 5.000000000000000900, -5.000000000000000000, -0.05000000000000000300 ) ) ;
#102 = DATE_TIME_ROLE ( 'classification_date' ) ;
#103 = CALENDAR_DATE ( 2019, 23, 1 ) ;
#104 = ORIENTED_EDGE ( 'NONE', *, *, #184, .F. ) ;
#105 = CARTESIAN_POINT ( 'NONE',  ( -4.999999999999999100, 5.000000000000000000, -0.05000000000000000300 ) ) ;
#106 = APPROVAL_ROLE ( '' ) ;
#107 = APPROVAL_DATE_TIME ( #165, #17 ) ;
#108 = LOCAL_TIME ( 15, 54, 32.00000000000000000, #185 ) ;
#109 = ORIENTED_EDGE ( 'NONE', *, *, #170, .F. ) ;
#110 = ADVANCED_FACE ( 'NONE', ( #209 ), #62, .F. ) ;
#111 = PERSON_AND_ORGANIZATION ( #164, #222 ) ;
#112 = CLOSED_SHELL ( 'NONE', ( #16, #160, #56, #145, #110, #234 ) ) ;
#113 = MANIFOLD_SOLID_BREP ( 'Boss-Extrude1', #112 ) ;
#114 = FACE_OUTER_BOUND ( 'NONE', #150, .T. ) ;
#115 = CARTESIAN_POINT ( 'NONE',  ( -4.999999999999999100, -5.000000000000000000, -0.05000000000000000300 ) ) ;
#116 = DIRECTION ( 'NONE',  ( 0.0000000000000000000, 0.0000000000000000000, 1.000000000000000000 ) ) ;
#117 = CARTESIAN_POINT ( 'NONE',  ( 5.000000000000000900, 5.000000000000000000, -0.05000000000000000300 ) ) ;
#118 = CARTESIAN_POINT ( 'NONE',  ( -4.999999999999999100, 5.000000000000000000, 0.05000000000000000300 ) ) ;
#119 = ORIENTED_EDGE ( 'NONE', *, *, #75, .T. ) ;
#120 = CARTESIAN_POINT ( 'NONE',  ( -4.999999999999999100, 5.000000000000000000, -0.05000000000000000300 ) ) ;
#121 = EDGE_CURVE ( 'NONE', #147, #219, #138, .T. ) ;
#122 = PERSON_AND_ORGANIZATION ( #164, #222 ) ;
#123 = VECTOR ( 'NONE', #65, 1000.000000000000000 ) ;
#124 = AXIS2_PLACEMENT_3D ( 'NONE', #223, #80, #152 ) ;
#125 = APPROVAL_ROLE ( '' ) ;
#126 = ORIENTED_EDGE ( 'NONE', *, *, #182, .T. ) ;
#127 =( GEOMETRIC_REPRESENTATION_CONTEXT ( 3 ) GLOBAL_UNCERTAINTY_ASSIGNED_CONTEXT ( ( #31 ) ) GLOBAL_UNIT_ASSIGNED_CONTEXT ( ( #30, #140, #86 ) ) REPRESENTATION_CONTEXT ( 'NONE', 'WORKASPACE' ) );
#128 = EDGE_LOOP ( 'NONE', ( #46, #91, #216, #119 ) ) ;
#129 = AXIS2_PLACEMENT_3D ( 'NONE', #6, #187, #134 ) ;
#130 = COORDINATED_UNIVERSAL_TIME_OFFSET ( 5, 0, .BEHIND. ) ;
#131 = VERTEX_POINT ( 'NONE', #78 ) ;
#132 = LINE ( 'NONE', #176, #171 ) ;
#133 = PLANE ( 'NONE',  #3 ) ;
#134 = DIRECTION ( 'NONE',  ( 0.0000000000000000000, 0.0000000000000000000, -1.000000000000000000 ) ) ;
#135 = DIRECTION ( 'NONE',  ( -0.0000000000000000000, -1.000000000000000000, -0.0000000000000000000 ) ) ;
#136 = DIRECTION ( 'NONE',  ( -1.000000000000000000, -0.0000000000000000000, -0.0000000000000000000 ) ) ;
#137 = VERTEX_POINT ( 'NONE', #117 ) ;
#138 = LINE ( 'NONE', #43, #163 ) ;
#139 = APPLICATION_CONTEXT ( 'configuration controlled 3d designs of mechanical parts and assemblies' ) ;
#140 =( NAMED_UNIT ( * ) PLANE_ANGLE_UNIT ( ) SI_UNIT ( $, .RADIAN. ) );
#141 = CALENDAR_DATE ( 2019, 23, 1 ) ;
#142 = AXIS2_PLACEMENT_3D ( 'NONE', #118, #189, #81 ) ;
#143 = VECTOR ( 'NONE', #224, 1000.000000000000000 ) ;
#144 = ORIENTED_EDGE ( 'NONE', *, *, #82, .F. ) ;
#145 = ADVANCED_FACE ( 'NONE', ( #114 ), #133, .F. ) ;
#146 = DATE_AND_TIME ( #60, #108 ) ;
#147 = VERTEX_POINT ( 'NONE', #63 ) ;
#148 = CC_DESIGN_APPROVAL ( #94, ( #217 ) ) ;
#149 = DATE_AND_TIME ( #103, #194 ) ;
#150 = EDGE_LOOP ( 'NONE', ( #2, #61, #104, #192 ) ) ;
#151 = DIRECTION ( 'NONE',  ( -0.0000000000000000000, -0.0000000000000000000, -1.000000000000000000 ) ) ;
#152 = DIRECTION ( 'NONE',  ( -1.000000000000000000, 0.0000000000000000000, -0.0000000000000000000 ) ) ;
#153 = CARTESIAN_POINT ( 'NONE',  ( -4.999999999999999100, -5.000000000000000000, -0.05000000000000000300 ) ) ;
#154 = EDGE_CURVE ( 'NONE', #219, #37, #79, .T. ) ;
#155 = COORDINATED_UNIVERSAL_TIME_OFFSET ( 5, 0, .BEHIND. ) ;
#156 = DIRECTION ( 'NONE',  ( 1.000000000000000000, 0.0000000000000000000, 0.0000000000000000000 ) ) ;
#157 = LINE ( 'NONE', #101, #237 ) ;
#158 = DIRECTION ( 'NONE',  ( 1.000000000000000000, 0.0000000000000000000, 0.0000000000000000000 ) ) ;
#159 = DIRECTION ( 'NONE',  ( 0.0000000000000000000, 1.000000000000000000, 0.0000000000000000000 ) ) ;
#160 = ADVANCED_FACE ( 'NONE', ( #93 ), #205, .F. ) ;
#161 = DATE_AND_TIME ( #141, #36 ) ;
#162 = APPROVAL_PERSON_ORGANIZATION ( #180, #94, #125 ) ;
#163 = VECTOR ( 'NONE', #135, 1000.000000000000000 ) ;
#164 = PERSON ( 'UNSPECIFIED', 'UNSPECIFIED', 'UNSPECIFIED', ('UNSPECIFIED'), ('UNSPECIFIED'), ('UNSPECIFIED') ) ;
#165 = DATE_AND_TIME ( #97, #200 ) ;
#166 = CARTESIAN_POINT ( 'NONE',  ( 5.000000000000000900, -5.000000000000000000, -0.05000000000000000300 ) ) ;
#167 = APPROVAL ( #228, 'UNSPECIFIED' ) ;
#168 = PERSON_AND_ORGANIZATION ( #164, #222 ) ;
#169 = LINE ( 'NONE', #120, #123 ) ;
#170 = EDGE_CURVE ( 'NONE', #37, #14, #83, .T. ) ;
#171 = VECTOR ( 'NONE', #156, 1000.000000000000000 ) ;
#172 = DIRECTION ( 'NONE',  ( 0.0000000000000000000, -0.0000000000000000000, 1.000000000000000000 ) ) ;
#173 = DIRECTION ( 'NONE',  ( -0.0000000000000000000, -0.0000000000000000000, -1.000000000000000000 ) ) ;
#174 = ORIENTED_EDGE ( 'NONE', *, *, #179, .F. ) ;
#175 = SECURITY_CLASSIFICATION ( '', '', #232 ) ;
#176 = CARTESIAN_POINT ( 'NONE',  ( -4.999999999999999100, -5.000000000000000000, 0.05000000000000000300 ) ) ;
#177 = CARTESIAN_POINT ( 'NONE',  ( 0.0000000000000000000, 0.0000000000000000000, 0.0000000000000000000 ) ) ;
#178 = PERSON_AND_ORGANIZATION_ROLE ( 'design_supplier' ) ;
#179 = EDGE_CURVE ( 'NONE', #131, #147, #181, .T. ) ;
#180 = PERSON_AND_ORGANIZATION ( #164, #222 ) ;
#181 = LINE ( 'NONE', #207, #203 ) ;
#182 = EDGE_CURVE ( 'NONE', #29, #131, #12, .T. ) ;
#183 = VECTOR ( 'NONE', #151, 1000.000000000000000 ) ;
#184 = EDGE_CURVE ( 'NONE', #219, #29, #132, .T. ) ;
#185 = COORDINATED_UNIVERSAL_TIME_OFFSET ( 5, 0, .BEHIND. ) ;
#186 = ORIENTED_EDGE ( 'NONE', *, *, #85, .F. ) ;
#187 = DIRECTION ( 'NONE',  ( 1.000000000000000000, 0.0000000000000000000, 0.0000000000000000000 ) ) ;
#188 = CARTESIAN_POINT ( 'NONE',  ( -4.999999999999999100, -5.000000000000000000, 0.05000000000000000300 ) ) ;
#189 = DIRECTION ( 'NONE',  ( 0.0000000000000000000, -1.000000000000000000, 0.0000000000000000000 ) ) ;
#190 = APPROVAL_PERSON_ORGANIZATION ( #90, #167, #52 ) ;
#191 = PRODUCT_DEFINITION_SHAPE ( 'NONE', 'NONE',  #217 ) ;
#192 = ORIENTED_EDGE ( 'NONE', *, *, #154, .T. ) ;
#193 = CARTESIAN_POINT ( 'NONE',  ( 0.0000000000000000000, 0.0000000000000000000, -0.05000000000000000300 ) ) ;
#194 = LOCAL_TIME ( 15, 54, 32.00000000000000000, #53 ) ;
#195 = FACE_OUTER_BOUND ( 'NONE', #96, .T. ) ;
#196 = APPROVAL_STATUS ( 'not_yet_approved' ) ;
#197 = CC_DESIGN_APPROVAL ( #17, ( #175 ) ) ;
#198 = APPROVAL_DATE_TIME ( #161, #167 ) ;
#199 = CC_DESIGN_PERSON_AND_ORGANIZATION_ASSIGNMENT ( #111, #88, ( #15 ) ) ;
#200 = LOCAL_TIME ( 15, 54, 32.00000000000000000, #130 ) ;
#201 = ORIENTED_EDGE ( 'NONE', *, *, #233, .F. ) ;
#202 = AXIS2_PLACEMENT_3D ( 'NONE', #21, #221, #116 ) ;
#203 = VECTOR ( 'NONE', #136, 1000.000000000000000 ) ;
#204 = PLANE ( 'NONE',  #202 ) ;
#205 = PLANE ( 'NONE',  #142 ) ;
#206 = PERSON_AND_ORGANIZATION ( #164, #222 ) ;
#207 = CARTESIAN_POINT ( 'NONE',  ( -4.999999999999999100, 5.000000000000000000, 0.05000000000000000300 ) ) ;
#208 = PERSON_AND_ORGANIZATION_ROLE ( 'creator' ) ;
#209 = FACE_OUTER_BOUND ( 'NONE', #59, .T. ) ;
#210 = VERTEX_POINT ( 'NONE', #105 ) ;
#211 = MECHANICAL_CONTEXT ( 'NONE', #212, 'mechanical' ) ;
#212 = APPLICATION_CONTEXT ( 'configuration controlled 3d designs of mechanical parts and assemblies' ) ;
#213 = CARTESIAN_POINT ( 'NONE',  ( -4.999999999999999100, 5.000000000000000000, 0.05000000000000000300 ) ) ;
#214 = CC_DESIGN_PERSON_AND_ORGANIZATION_ASSIGNMENT ( #168, #208, ( #19 ) ) ;
#215 = COORDINATED_UNIVERSAL_TIME_OFFSET ( 5, 0, .BEHIND. ) ;
#216 = ORIENTED_EDGE ( 'NONE', *, *, #182, .F. ) ;
#217 = PRODUCT_DEFINITION ( 'UNKNOWN', '', #19, #39 ) ;
#218 = ORIENTED_EDGE ( 'NONE', *, *, #58, .T. ) ;
#219 = VERTEX_POINT ( 'NONE', #47 ) ;
#220 = CC_DESIGN_PERSON_AND_ORGANIZATION_ASSIGNMENT ( #122, #178, ( #19 ) ) ;
#221 = DIRECTION ( 'NONE',  ( -1.000000000000000000, 0.0000000000000000000, 0.0000000000000000000 ) ) ;
#222 = ORGANIZATION ( 'UNSPECIFIED', 'UNSPECIFIED', '' ) ;
#223 = CARTESIAN_POINT ( 'NONE',  ( 0.0000000000000000000, 0.0000000000000000000, 0.05000000000000000300 ) ) ;
#224 = DIRECTION ( 'NONE',  ( -0.0000000000000000000, -1.000000000000000000, -0.0000000000000000000 ) ) ;
#225 = DIRECTION ( 'NONE',  ( 1.000000000000000000, 0.0000000000000000000, 0.0000000000000000000 ) ) ;
#226 = PERSON_AND_ORGANIZATION ( #164, #222 ) ;
#227 = VECTOR ( 'NONE', #159, 1000.000000000000000 ) ;
#228 = APPROVAL_STATUS ( 'not_yet_approved' ) ;
#229 = VECTOR ( 'NONE', #231, 1000.000000000000000 ) ;
#230 = CC_DESIGN_APPROVAL ( #167, ( #19 ) ) ;
#231 = DIRECTION ( 'NONE',  ( -0.0000000000000000000, -0.0000000000000000000, -1.000000000000000000 ) ) ;
#232 = SECURITY_CLASSIFICATION_LEVEL ( 'unclassified' ) ;
#233 = EDGE_CURVE ( 'NONE', #147, #210, #40, .T. ) ;
#234 = ADVANCED_FACE ( 'NONE', ( #87 ), #28, .T. ) ;
#235 = VECTOR ( 'NONE', #173, 1000.000000000000000 ) ;
#236 = DATE_AND_TIME ( #32, #76 ) ;
#237 = VECTOR ( 'NONE', #22, 1000.000000000000000 ) ;
ENDSEC;
END-ISO-10303-21;
