ISO-10303-21;
HEADER;
FILE_DESCRIPTION (( 'STEP AP203' ),
    '1' );
FILE_NAME ('Web Model 68521_47940.step',
    '2017-03-22T18:38:01',
    ( '' ),
    ( '' ),
    'SwSTEP 2.0',
    'SolidWorks 2016',
    '' );
FILE_SCHEMA (( 'CONFIG_CONTROL_DESIGN' ));
ENDSEC;

DATA;
#1 = APPROVAL ( #44, 'UNSPECIFIED' ) ;
#2 = APPROVAL_DATE_TIME ( #71, #119 ) ;
#3 = DIRECTION ( 'NONE',  ( 0.0000000000000000000, 1.000000000000000000, 0.0000000000000000000 ) ) ;
#4 = CARTESIAN_POINT ( 'NONE',  ( 0.0000000000000000000, 0.0000000000000000000, -5.000000000000000900 ) ) ;
#5 = PERSON_AND_ORGANIZATION ( #147, #9 ) ;
#6 = ADVANCED_FACE ( 'NONE', ( #40 ), #15, .F. ) ;
#7 = FACE_OUTER_BOUND ( 'NONE', #99, .T. ) ;
#8 = PERSON_AND_ORGANIZATION ( #147, #9 ) ;
#9 = ORGANIZATION ( 'UNSPECIFIED', 'UNSPECIFIED', '' ) ;
#10 =( LENGTH_UNIT ( ) NAMED_UNIT ( * ) SI_UNIT ( .MILLI., .METRE. ) );
#11 = EDGE_CURVE ( 'NONE', #118, #69, #79, .T. ) ;
#12 = CC_DESIGN_APPROVAL ( #1, ( #171 ) ) ;
#13 = AXIS2_PLACEMENT_3D ( 'NONE', #72, #120, #37 ) ;
#14 = ORIENTED_EDGE ( 'NONE', *, *, #59, .F. ) ;
#15 = PLANE ( 'NONE',  #87 ) ;
#16 = PLANE ( 'NONE',  #13 ) ;
#17 = CARTESIAN_POINT ( 'NONE',  ( 0.0000000000000000000, 1.500000000000000000, 0.0000000000000000000 ) ) ;
#18 = CALENDAR_DATE ( 2017, 22, 3 ) ;
#19 = VERTEX_POINT ( 'NONE', #153 ) ;
#20 = ADVANCED_FACE ( 'NONE', ( #7 ), #16, .T. ) ;
#21 = EDGE_CURVE ( 'NONE', #19, #118, #80, .T. ) ;
#22 = AXIS2_PLACEMENT_3D ( 'NONE', #17, #156, #121 ) ;
#23 = CC_DESIGN_PERSON_AND_ORGANIZATION_ASSIGNMENT ( #8, #150, ( #171 ) ) ;
#24 =( NAMED_UNIT ( * ) SI_UNIT ( $, .STERADIAN. ) SOLID_ANGLE_UNIT ( ) );
#25 = ORIENTED_EDGE ( 'NONE', *, *, #21, .F. ) ;
#26 = APPLICATION_CONTEXT ( 'configuration controlled 3d designs of mechanical parts and assemblies' ) ;
#27 = UNCERTAINTY_MEASURE_WITH_UNIT (LENGTH_MEASURE( 1.000000000000000100E-005 ), #10, 'distance_accuracy_value', 'NONE');
#28 = PERSON_AND_ORGANIZATION ( #147, #9 ) ;
#29 = AXIS2_PLACEMENT_3D ( 'NONE', #164, #3, #104 ) ;
#30 = DIRECTION ( 'NONE',  ( -0.0000000000000000000, -1.000000000000000000, -0.0000000000000000000 ) ) ;
#31 = APPROVAL_STATUS ( 'not_yet_approved' ) ;
#32 = CYLINDRICAL_SURFACE ( 'NONE', #114, 5.000000000000000900 ) ;
#33 = APPROVAL_ROLE ( '' ) ;
#34 = DATE_TIME_ROLE ( 'creation_date' ) ;
#35 = CC_DESIGN_DATE_AND_TIME_ASSIGNMENT ( #92, #34, ( #171 ) ) ;
#36 = LOCAL_TIME ( 14, 38, 1.000000000000000000, #105 ) ;
#37 = DIRECTION ( 'NONE',  ( 0.0000000000000000000, -0.0000000000000000000, 1.000000000000000000 ) ) ;
#38 = CARTESIAN_POINT ( 'NONE',  ( 0.0000000000000000000, 1.500000000000000000, 0.0000000000000000000 ) ) ;
#39 = CARTESIAN_POINT ( 'NONE',  ( 0.0000000000000000000, 1.500000000000000000, 0.0000000000000000000 ) ) ;
#40 = FACE_OUTER_BOUND ( 'NONE', #49, .T. ) ;
#41 = CALENDAR_DATE ( 2017, 22, 3 ) ;
#42 = CALENDAR_DATE ( 2017, 22, 3 ) ;
#43 = APPLICATION_PROTOCOL_DEFINITION ( 'international standard', 'config_control_design', 1994, #149 ) ;
#44 = APPROVAL_STATUS ( 'not_yet_approved' ) ;
#45 = EDGE_CURVE ( 'NONE', #68, #69, #113, .T. ) ;
#46 = PRODUCT_DEFINITION_FORMATION_WITH_SPECIFIED_SOURCE ( 'ANY', '', #168, .NOT_KNOWN. ) ;
#47 = APPROVAL_PERSON_ORGANIZATION ( #64, #1, #55 ) ;
#48 = PERSON_AND_ORGANIZATION_ROLE ( 'classification_officer' ) ;
#49 = EDGE_LOOP ( 'NONE', ( #65, #84 ) ) ;
#50 = SECURITY_CLASSIFICATION_LEVEL ( 'unclassified' ) ;
#51 = DIRECTION ( 'NONE',  ( 0.0000000000000000000, 0.0000000000000000000, 1.000000000000000000 ) ) ;
#52 = PERSON_AND_ORGANIZATION ( #147, #9 ) ;
#53 = DATE_AND_TIME ( #116, #82 ) ;
#54 = APPROVAL ( #70, 'UNSPECIFIED' ) ;
#55 = APPROVAL_ROLE ( '' ) ;
#56 = MANIFOLD_SOLID_BREP ( 'Extrude1', #142 ) ;
#57 = CARTESIAN_POINT ( 'NONE',  ( 0.0000000000000000000, 1.500000000000000000, 0.0000000000000000000 ) ) ;
#58 = CC_DESIGN_APPROVAL ( #54, ( #46 ) ) ;
#59 = EDGE_CURVE ( 'NONE', #19, #68, #95, .T. ) ;
#60 = CARTESIAN_POINT ( 'NONE',  ( 6.123233995736767300E-016, 1.500000000000000000, 5.000000000000000900 ) ) ;
#61 = PERSON_AND_ORGANIZATION ( #147, #9 ) ;
#62 = LOCAL_TIME ( 14, 38, 1.000000000000000000, #125 ) ;
#63 = CARTESIAN_POINT ( 'NONE',  ( 0.0000000000000000000, 0.0000000000000000000, 0.0000000000000000000 ) ) ;
#64 = PERSON_AND_ORGANIZATION ( #147, #9 ) ;
#65 = ORIENTED_EDGE ( 'NONE', *, *, #160, .F. ) ;
#66 = CC_DESIGN_PERSON_AND_ORGANIZATION_ASSIGNMENT ( #5, #85, ( #46 ) ) ;
#67 = APPROVAL_DATE_TIME ( #53, #1 ) ;
#68 = VERTEX_POINT ( 'NONE', #166 ) ;
#69 = VERTEX_POINT ( 'NONE', #4 ) ;
#70 = APPROVAL_STATUS ( 'not_yet_approved' ) ;
#71 = DATE_AND_TIME ( #144, #36 ) ;
#72 = CARTESIAN_POINT ( 'NONE',  ( 0.0000000000000000000, 1.500000000000000000, 0.0000000000000000000 ) ) ;
#73 = ORIENTED_EDGE ( 'NONE', *, *, #45, .T. ) ;
#74 = DIRECTION ( 'NONE',  ( -0.0000000000000000000, -1.000000000000000000, -0.0000000000000000000 ) ) ;
#75 = ORIENTED_EDGE ( 'NONE', *, *, #160, .T. ) ;
#76 = APPROVAL_DATE_TIME ( #148, #54 ) ;
#77 = CC_DESIGN_PERSON_AND_ORGANIZATION_ASSIGNMENT ( #123, #129, ( #46 ) ) ;
#78 = DIRECTION ( 'NONE',  ( 1.000000000000000000, 0.0000000000000000000, 0.0000000000000000000 ) ) ;
#79 = CIRCLE ( 'NONE', #29, 5.000000000000000900 ) ;
#80 = LINE ( 'NONE', #60, #151 ) ;
#81 = CYLINDRICAL_SURFACE ( 'NONE', #22, 5.000000000000000900 ) ;
#82 = LOCAL_TIME ( 14, 38, 1.000000000000000000, #141 ) ;
#83 = PRODUCT_DEFINITION_SHAPE ( 'NONE', 'NONE',  #171 ) ;
#84 = ORIENTED_EDGE ( 'NONE', *, *, #11, .F. ) ;
#85 = PERSON_AND_ORGANIZATION_ROLE ( 'creator' ) ;
#86 = SECURITY_CLASSIFICATION ( '', '', #50 ) ;
#87 = AXIS2_PLACEMENT_3D ( 'NONE', #103, #175, #158 ) ;
#88 = ORIENTED_EDGE ( 'NONE', *, *, #98, .F. ) ;
#89 = LOCAL_TIME ( 14, 38, 1.000000000000000000, #157 ) ;
#90 = FACE_OUTER_BOUND ( 'NONE', #134, .T. ) ;
#91 = ADVANCED_FACE ( 'NONE', ( #90 ), #81, .T. ) ;
#92 = DATE_AND_TIME ( #42, #62 ) ;
#93 = SHAPE_DEFINITION_REPRESENTATION ( #83, #170 ) ;
#94 = PERSON_AND_ORGANIZATION_ROLE ( 'design_owner' ) ;
#95 = CIRCLE ( 'NONE', #110, 5.000000000000000900 ) ;
#96 = FACE_OUTER_BOUND ( 'NONE', #101, .T. ) ;
#97 = CC_DESIGN_PERSON_AND_ORGANIZATION_ASSIGNMENT ( #52, #48, ( #86 ) ) ;
#98 = EDGE_CURVE ( 'NONE', #68, #19, #137, .T. ) ;
#99 = EDGE_LOOP ( 'NONE', ( #124, #115 ) ) ;
#100 =( GEOMETRIC_REPRESENTATION_CONTEXT ( 3 ) GLOBAL_UNCERTAINTY_ASSIGNED_CONTEXT ( ( #27 ) ) GLOBAL_UNIT_ASSIGNED_CONTEXT ( ( #10, #109, #24 ) ) REPRESENTATION_CONTEXT ( 'NONE', 'WORKASPACE' ) );
#101 = EDGE_LOOP ( 'NONE', ( #14, #108, #107, #172 ) ) ;
#102 = APPROVAL_ROLE ( '' ) ;
#103 = CARTESIAN_POINT ( 'NONE',  ( 0.0000000000000000000, 0.0000000000000000000, 0.0000000000000000000 ) ) ;
#104 = DIRECTION ( 'NONE',  ( 0.0000000000000000000, 0.0000000000000000000, 1.000000000000000000 ) ) ;
#105 = COORDINATED_UNIVERSAL_TIME_OFFSET ( 5, 0, .BEHIND. ) ;
#106 = LOCAL_TIME ( 14, 38, 1.000000000000000000, #169 ) ;
#107 = ORIENTED_EDGE ( 'NONE', *, *, #11, .T. ) ;
#108 = ORIENTED_EDGE ( 'NONE', *, *, #21, .T. ) ;
#109 =( NAMED_UNIT ( * ) PLANE_ANGLE_UNIT ( ) SI_UNIT ( $, .RADIAN. ) );
#110 = AXIS2_PLACEMENT_3D ( 'NONE', #38, #132, #51 ) ;
#111 = CC_DESIGN_DATE_AND_TIME_ASSIGNMENT ( #131, #143, ( #86 ) ) ;
#112 = DIRECTION ( 'NONE',  ( 0.0000000000000000000, 0.0000000000000000000, 1.000000000000000000 ) ) ;
#113 = LINE ( 'NONE', #130, #161 ) ;
#114 = AXIS2_PLACEMENT_3D ( 'NONE', #57, #74, #122 ) ;
#115 = ORIENTED_EDGE ( 'NONE', *, *, #59, .T. ) ;
#116 = CALENDAR_DATE ( 2017, 22, 3 ) ;
#117 = CARTESIAN_POINT ( 'NONE',  ( 0.0000000000000000000, 0.0000000000000000000, 0.0000000000000000000 ) ) ;
#118 = VERTEX_POINT ( 'NONE', #167 ) ;
#119 = APPROVAL ( #31, 'UNSPECIFIED' ) ;
#120 = DIRECTION ( 'NONE',  ( 0.0000000000000000000, 1.000000000000000000, 0.0000000000000000000 ) ) ;
#121 = DIRECTION ( 'NONE',  ( 0.0000000000000000000, 0.0000000000000000000, -1.000000000000000000 ) ) ;
#122 = DIRECTION ( 'NONE',  ( 0.0000000000000000000, 0.0000000000000000000, -1.000000000000000000 ) ) ;
#123 = PERSON_AND_ORGANIZATION ( #147, #9 ) ;
#124 = ORIENTED_EDGE ( 'NONE', *, *, #98, .T. ) ;
#125 = COORDINATED_UNIVERSAL_TIME_OFFSET ( 5, 0, .BEHIND. ) ;
#126 = APPLICATION_PROTOCOL_DEFINITION ( 'international standard', 'config_control_design', 1994, #26 ) ;
#127 = PERSON_AND_ORGANIZATION ( #147, #9 ) ;
#128 = CC_DESIGN_APPROVAL ( #119, ( #86 ) ) ;
#129 = PERSON_AND_ORGANIZATION_ROLE ( 'design_supplier' ) ;
#130 = CARTESIAN_POINT ( 'NONE',  ( 0.0000000000000000000, 1.500000000000000000, -5.000000000000000900 ) ) ;
#131 = DATE_AND_TIME ( #18, #89 ) ;
#132 = DIRECTION ( 'NONE',  ( 0.0000000000000000000, 1.000000000000000000, 0.0000000000000000000 ) ) ;
#133 = DIRECTION ( 'NONE',  ( 0.0000000000000000000, 1.000000000000000000, 0.0000000000000000000 ) ) ;
#134 = EDGE_LOOP ( 'NONE', ( #25, #88, #73, #75 ) ) ;
#135 = AXIS2_PLACEMENT_3D ( 'NONE', #39, #133, #146 ) ;
#136 = APPROVAL_PERSON_ORGANIZATION ( #28, #54, #102 ) ;
#137 = CIRCLE ( 'NONE', #135, 5.000000000000000900 ) ;
#138 = CC_DESIGN_SECURITY_CLASSIFICATION ( #86, ( #46 ) ) ;
#139 = DIRECTION ( 'NONE',  ( 0.0000000000000000000, 1.000000000000000000, 0.0000000000000000000 ) ) ;
#140 = CIRCLE ( 'NONE', #163, 5.000000000000000900 ) ;
#141 = COORDINATED_UNIVERSAL_TIME_OFFSET ( 5, 0, .BEHIND. ) ;
#142 = CLOSED_SHELL ( 'NONE', ( #173, #91, #20, #6 ) ) ;
#143 = DATE_TIME_ROLE ( 'classification_date' ) ;
#144 = CALENDAR_DATE ( 2017, 22, 3 ) ;
#145 = PRODUCT_RELATED_PRODUCT_CATEGORY ( 'detail', '', ( #168 ) ) ;
#146 = DIRECTION ( 'NONE',  ( 0.0000000000000000000, 0.0000000000000000000, 1.000000000000000000 ) ) ;
#147 = PERSON ( 'UNSPECIFIED', 'UNSPECIFIED', 'UNSPECIFIED', ('UNSPECIFIED'), ('UNSPECIFIED'), ('UNSPECIFIED') ) ;
#148 = DATE_AND_TIME ( #41, #106 ) ;
#149 = APPLICATION_CONTEXT ( 'configuration controlled 3d designs of mechanical parts and assemblies' ) ;
#150 = PERSON_AND_ORGANIZATION_ROLE ( 'creator' ) ;
#151 = VECTOR ( 'NONE', #155, 1000.000000000000000 ) ;
#152 = DESIGN_CONTEXT ( 'detailed design', #26, 'design' ) ;
#153 = CARTESIAN_POINT ( 'NONE',  ( 6.123233995736767300E-016, 1.500000000000000000, 5.000000000000000900 ) ) ;
#154 = AXIS2_PLACEMENT_3D ( 'NONE', #63, #159, #78 ) ;
#155 = DIRECTION ( 'NONE',  ( -0.0000000000000000000, -1.000000000000000000, -0.0000000000000000000 ) ) ;
#156 = DIRECTION ( 'NONE',  ( -0.0000000000000000000, -1.000000000000000000, -0.0000000000000000000 ) ) ;
#157 = COORDINATED_UNIVERSAL_TIME_OFFSET ( 5, 0, .BEHIND. ) ;
#158 = DIRECTION ( 'NONE',  ( 0.0000000000000000000, -0.0000000000000000000, 1.000000000000000000 ) ) ;
#159 = DIRECTION ( 'NONE',  ( 0.0000000000000000000, 0.0000000000000000000, 1.000000000000000000 ) ) ;
#160 = EDGE_CURVE ( 'NONE', #69, #118, #140, .T. ) ;
#161 = VECTOR ( 'NONE', #30, 1000.000000000000000 ) ;
#162 = CC_DESIGN_PERSON_AND_ORGANIZATION_ASSIGNMENT ( #127, #94, ( #168 ) ) ;
#163 = AXIS2_PLACEMENT_3D ( 'NONE', #117, #139, #112 ) ;
#164 = CARTESIAN_POINT ( 'NONE',  ( 0.0000000000000000000, 0.0000000000000000000, 0.0000000000000000000 ) ) ;
#165 = APPROVAL_PERSON_ORGANIZATION ( #61, #119, #33 ) ;
#166 = CARTESIAN_POINT ( 'NONE',  ( 0.0000000000000000000, 1.500000000000000000, -5.000000000000000900 ) ) ;
#167 = CARTESIAN_POINT ( 'NONE',  ( 6.123233995736767300E-016, 0.0000000000000000000, 5.000000000000000900 ) ) ;
#168 = PRODUCT ( 'Web Model 68521_47940', 'Web Model 68521_47940', '', ( #174 ) ) ;
#169 = COORDINATED_UNIVERSAL_TIME_OFFSET ( 5, 0, .BEHIND. ) ;
#170 = ADVANCED_BREP_SHAPE_REPRESENTATION ( 'Web Model 68521_47940', ( #56, #154 ), #100 ) ;
#171 = PRODUCT_DEFINITION ( 'UNKNOWN', '', #46, #152 ) ;
#172 = ORIENTED_EDGE ( 'NONE', *, *, #45, .F. ) ;
#173 = ADVANCED_FACE ( 'NONE', ( #96 ), #32, .T. ) ;
#174 = MECHANICAL_CONTEXT ( 'NONE', #149, 'mechanical' ) ;
#175 = DIRECTION ( 'NONE',  ( 0.0000000000000000000, 1.000000000000000000, 0.0000000000000000000 ) ) ;
ENDSEC;
END-ISO-10303-21;
