ISO-10303-21;
HEADER;
FILE_DESCRIPTION (( 'STEP AP214' ),
    '1' );
FILE_NAME ('4506-E0W.STEP',
    '2009-12-21T17:07:01',
    ( ' ' ),
    ( ' ' ),
    'SwSTEP 2.0',
    'SolidWorks 2009',
    '' );
FILE_SCHEMA (( 'AUTOMOTIVE_DESIGN' ));
ENDSEC;

DATA;
#1 = CARTESIAN_POINT ( 'NONE',  ( -15.00000000000000000, 1.836909530733565900E-015, -4.484999999999999400 ) ) ;
#2 = CARTESIAN_POINT ( 'NONE',  ( 15.00000000000000000, 0.0000000000000000000, -4.484999999999999400 ) ) ;
#3 = DIRECTION ( 'NONE',  ( 1.000000000000000000, 0.0000000000000000000, 0.0000000000000000000 ) ) ;
#4 = DIRECTION ( 'NONE',  ( -0.0000000000000000000, -0.0000000000000000000, 1.000000000000000000 ) ) ;
#5 = CARTESIAN_POINT ( 'NONE',  ( 0.0000000000000000000, 0.0000000000000000000, -4.484999999999999400 ) ) ;
#6 = AXIS2_PLACEMENT_3D ( 'NONE', #5, #4, #3 ) ;
#7 = CIRCLE ( 'NONE', #6, 15.00000000000000000 ) ;
#8 = DIRECTION ( 'NONE',  ( 1.000000000000000000, 0.0000000000000000000, 0.0000000000000000000 ) ) ;
#9 = DIRECTION ( 'NONE',  ( -0.0000000000000000000, -0.0000000000000000000, 1.000000000000000000 ) ) ;
#10 = CARTESIAN_POINT ( 'NONE',  ( 0.0000000000000000000, 0.0000000000000000000, 4.308132045400366600 ) ) ;
#11 = AXIS2_PLACEMENT_3D ( 'NONE', #10, #9, #8 ) ;
#12 = CYLINDRICAL_SURFACE ( 'NONE', #11, 15.00000000000000000 ) ;
#13 = EDGE_LOOP ( 'NONE', ( #15, #16, #18, #83, #84 ) ) ;
#14 = ORIENTED_EDGE ( 'NONE', *, *, #24, .F. ) ;
#15 = ORIENTED_EDGE ( 'NONE', *, *, #48, .F. ) ;
#16 = ORIENTED_EDGE ( 'NONE', *, *, #17, .T. ) ;
#17 = EDGE_CURVE ( 'NONE', #46, #45, #81, .T. ) ;
#18 = ORIENTED_EDGE ( 'NONE', *, *, #33, .T. ) ;
#19 = ORIENTED_EDGE ( 'NONE', *, *, #22, .T. ) ;
#20 = CLOSED_SHELL ( 'NONE', ( #41, #34, #90, #89, #85 ) ) ;
#21 = ORIENTED_EDGE ( 'NONE', *, *, #24, .T. ) ;
#22 = EDGE_CURVE ( 'NONE', #39, #31, #75, .T. ) ;
#23 = ORIENTED_EDGE ( 'NONE', *, *, #30, .T. ) ;
#24 = EDGE_CURVE ( 'NONE', #28, #94, #70, .T. ) ;
#25 = EDGE_LOOP ( 'NONE', ( #91, #19, #23, #21 ) ) ;
#26 = ORIENTED_EDGE ( 'NONE', *, *, #27, .F. ) ;
#27 = EDGE_CURVE ( 'NONE', #28, #49, #167, .T. ) ;
#28 = VERTEX_POINT ( 'NONE', #163 ) ;
#29 = ORIENTED_EDGE ( 'NONE', *, *, #30, .F. ) ;
#30 = EDGE_CURVE ( 'NONE', #31, #28, #162, .T. ) ;
#31 = VERTEX_POINT ( 'NONE', #157 ) ;
#32 = ORIENTED_EDGE ( 'NONE', *, *, #33, .F. ) ;
#33 = EDGE_CURVE ( 'NONE', #45, #31, #155, .T. ) ;
#34 = ADVANCED_FACE ( 'NONE', ( #151 ), #136, .T. ) ;
#35 = EDGE_LOOP ( 'NONE', ( #36, #37, #92, #14 ) ) ;
#36 = ORIENTED_EDGE ( 'NONE', *, *, #27, .T. ) ;
#37 = ORIENTED_EDGE ( 'NONE', *, *, #38, .T. ) ;
#38 = EDGE_CURVE ( 'NONE', #49, #39, #135, .T. ) ;
#39 = VERTEX_POINT ( 'NONE', #126 ) ;
#40 = MANIFOLD_SOLID_BREP ( 'NONE', #20 ) ;
#41 = ADVANCED_FACE ( 'NONE', ( #110 ), #12, .T. ) ;
#42 = EDGE_LOOP ( 'NONE', ( #43, #47, #26, #29, #32 ) ) ;
#43 = ORIENTED_EDGE ( 'NONE', *, *, #44, .T. ) ;
#44 = EDGE_CURVE ( 'NONE', #45, #46, #7, .T. ) ;
#45 = VERTEX_POINT ( 'NONE', #2 ) ;
#46 = VERTEX_POINT ( 'NONE', #1 ) ;
#47 = ORIENTED_EDGE ( 'NONE', *, *, #48, .T. ) ;
#48 = EDGE_CURVE ( 'NONE', #46, #49, #66, .T. ) ;
#49 = VERTEX_POINT ( 'NONE', #62 ) ;
#50 =( LENGTH_UNIT ( ) NAMED_UNIT ( * ) SI_UNIT ( .MILLI., .METRE. ) );
#51 = MECHANICAL_DESIGN_GEOMETRIC_PRESENTATION_REPRESENTATION (  '', ( #53 ), #243 ) ;
#52 = PRESENTATION_LAYER_ASSIGNMENT (  '', '', ( #53 ) ) ;
#53 = STYLED_ITEM ( 'NONE', ( #54 ), #85 ) ;
#54 = PRESENTATION_STYLE_ASSIGNMENT (( #55 ) ) ;
#55 = SURFACE_STYLE_USAGE ( .BOTH. , #56 ) ;
#56 = SURFACE_SIDE_STYLE ('',( #57 ) ) ;
#57 = SURFACE_STYLE_FILL_AREA ( #58 ) ;
#58 = FILL_AREA_STYLE ('',( #59 ) ) ;
#59 = FILL_AREA_STYLE_COLOUR ( '', #60 ) ;
#60 = COLOUR_RGB ( '',0.9568627450980391500, 0.9490196078431372100, 0.9607843137254902200 ) ;
#61 = FACE_OUTER_BOUND ( 'NONE', #86, .T. ) ;
#62 = CARTESIAN_POINT ( 'NONE',  ( -15.00000000000000400, 1.836909530733566300E-015, -1.995509924221768000 ) ) ;
#63 = DIRECTION ( 'NONE',  ( -0.0000000000000000000, -0.0000000000000000000, 1.000000000000000000 ) ) ;
#64 = VECTOR ( 'NONE', #63, 1000.000000000000000 ) ;
#65 = CARTESIAN_POINT ( 'NONE',  ( -15.00000000000000000, 1.836909530733565900E-015, 4.308132045400366600 ) ) ;
#66 = LINE ( 'NONE', #65, #64 ) ;
#67 = DIRECTION ( 'NONE',  ( 0.0000000000000000000, 0.0000000000000000000, -1.000000000000000000 ) ) ;
#68 = DIRECTION ( 'NONE',  ( 1.000000000000000000, 0.0000000000000000000, 0.0000000000000000000 ) ) ;
#69 = AXIS2_PLACEMENT_3D ( 'NONE', #76, #68, #67 ) ;
#70 = CIRCLE ( 'NONE', #69, 20.59999999999999800 ) ;
#71 = CARTESIAN_POINT ( 'NONE',  ( 0.0000000000000000000, 0.0000000000000000000, -1.995509924221768000 ) ) ;
#72 = DIRECTION ( 'NONE',  ( 1.000000000000000000, 0.0000000000000000000, 0.0000000000000000000 ) ) ;
#73 = DIRECTION ( 'NONE',  ( -0.0000000000000000000, -0.0000000000000000000, 1.000000000000000000 ) ) ;
#74 = AXIS2_PLACEMENT_3D ( 'NONE', #82, #73, #72 ) ;
#75 = CIRCLE ( 'NONE', #74, 15.00000000000000200 ) ;
#76 = CARTESIAN_POINT ( 'NONE',  ( 0.0000000000000000000, 0.0000000000000000000, -16.11500000000000200 ) ) ;
#77 = DIRECTION ( 'NONE',  ( 1.000000000000000000, 0.0000000000000000000, 0.0000000000000000000 ) ) ;
#78 = DIRECTION ( 'NONE',  ( -0.0000000000000000000, -0.0000000000000000000, 1.000000000000000000 ) ) ;
#79 = CARTESIAN_POINT ( 'NONE',  ( 0.0000000000000000000, 0.0000000000000000000, -4.484999999999999400 ) ) ;
#80 = AXIS2_PLACEMENT_3D ( 'NONE', #79, #78, #77 ) ;
#81 = CIRCLE ( 'NONE', #80, 15.00000000000000000 ) ;
#82 = CARTESIAN_POINT ( 'NONE',  ( 0.0000000000000000000, 0.0000000000000000000, -1.995509924221768000 ) ) ;
#83 = ORIENTED_EDGE ( 'NONE', *, *, #22, .F. ) ;
#84 = ORIENTED_EDGE ( 'NONE', *, *, #38, .F. ) ;
#85 = ADVANCED_FACE ( 'NONE', ( #61 ), #193, .F. ) ;
#86 = EDGE_LOOP ( 'NONE', ( #87, #88 ) ) ;
#87 = ORIENTED_EDGE ( 'NONE', *, *, #44, .F. ) ;
#88 = ORIENTED_EDGE ( 'NONE', *, *, #17, .F. ) ;
#89 = ADVANCED_FACE ( 'NONE', ( #182 ), #187, .T. ) ;
#90 = ADVANCED_FACE ( 'NONE', ( #188 ), #191, .T. ) ;
#91 = ORIENTED_EDGE ( 'NONE', *, *, #93, .F. ) ;
#92 = ORIENTED_EDGE ( 'NONE', *, *, #93, .T. ) ;
#93 = EDGE_CURVE ( 'NONE', #39, #94, #190, .T. ) ;
#94 = VERTEX_POINT ( 'NONE', #220 ) ;
#95 =( GEOMETRIC_REPRESENTATION_CONTEXT ( 3 ) GLOBAL_UNCERTAINTY_ASSIGNED_CONTEXT ( ( #96 ) ) GLOBAL_UNIT_ASSIGNED_CONTEXT ( ( #99, #98, #97 ) ) REPRESENTATION_CONTEXT ( 'NONE', 'WORKASPACE' ) );
#96 = UNCERTAINTY_MEASURE_WITH_UNIT (LENGTH_MEASURE( 1.000000000000000100E-005 ), #99, 'distance_accuracy_value', 'NONE');
#97 =( NAMED_UNIT ( * ) SI_UNIT ( $, .STERADIAN. ) SOLID_ANGLE_UNIT ( ) );
#98 =( NAMED_UNIT ( * ) PLANE_ANGLE_UNIT ( ) SI_UNIT ( $, .RADIAN. ) );
#99 =( LENGTH_UNIT ( ) NAMED_UNIT ( * ) SI_UNIT ( .MILLI., .METRE. ) );
#100 = MECHANICAL_DESIGN_GEOMETRIC_PRESENTATION_REPRESENTATION (  '', ( #102 ), #95 ) ;
#101 = PRESENTATION_LAYER_ASSIGNMENT (  '', '', ( #102 ) ) ;
#102 = STYLED_ITEM ( 'NONE', ( #103 ), #41 ) ;
#103 = PRESENTATION_STYLE_ASSIGNMENT (( #104 ) ) ;
#104 = SURFACE_STYLE_USAGE ( .BOTH. , #105 ) ;
#105 = SURFACE_SIDE_STYLE ('',( #106 ) ) ;
#106 = SURFACE_STYLE_FILL_AREA ( #107 ) ;
#107 = FILL_AREA_STYLE ('',( #108 ) ) ;
#108 = FILL_AREA_STYLE_COLOUR ( '', #109 ) ;
#109 = COLOUR_RGB ( '',0.9568627450980391500, 0.9490196078431372100, 0.9607843137254902200 ) ;
#110 = FACE_OUTER_BOUND ( 'NONE', #42, .T. ) ;
#111 =( GEOMETRIC_REPRESENTATION_CONTEXT ( 3 ) GLOBAL_UNCERTAINTY_ASSIGNED_CONTEXT ( ( #112 ) ) GLOBAL_UNIT_ASSIGNED_CONTEXT ( ( #115, #114, #113 ) ) REPRESENTATION_CONTEXT ( 'NONE', 'WORKASPACE' ) );
#112 = UNCERTAINTY_MEASURE_WITH_UNIT (LENGTH_MEASURE( 1.000000000000000100E-005 ), #115, 'distance_accuracy_value', 'NONE');
#113 =( NAMED_UNIT ( * ) SI_UNIT ( $, .STERADIAN. ) SOLID_ANGLE_UNIT ( ) );
#114 =( NAMED_UNIT ( * ) PLANE_ANGLE_UNIT ( ) SI_UNIT ( $, .RADIAN. ) );
#115 =( LENGTH_UNIT ( ) NAMED_UNIT ( * ) SI_UNIT ( .MILLI., .METRE. ) );
#116 = MECHANICAL_DESIGN_GEOMETRIC_PRESENTATION_REPRESENTATION (  '', ( #118 ), #111 ) ;
#117 = PRESENTATION_LAYER_ASSIGNMENT (  '', '', ( #118 ) ) ;
#118 = STYLED_ITEM ( 'NONE', ( #119 ), #40 ) ;
#119 = PRESENTATION_STYLE_ASSIGNMENT (( #120 ) ) ;
#120 = SURFACE_STYLE_USAGE ( .BOTH. , #121 ) ;
#121 = SURFACE_SIDE_STYLE ('',( #122 ) ) ;
#122 = SURFACE_STYLE_FILL_AREA ( #123 ) ;
#123 = FILL_AREA_STYLE ('',( #124 ) ) ;
#124 = FILL_AREA_STYLE_COLOUR ( '', #125 ) ;
#125 = COLOUR_RGB ( '',0.7960784313725489700, 0.8235294117647058400, 0.9372549019607843100 ) ;
#126 = CARTESIAN_POINT ( 'NONE',  ( -1.836909530733566300E-015, -15.00000000000000200, -1.995509924221768000 ) ) ;
#127 = DIRECTION ( 'NONE',  ( 1.000000000000000000, 0.0000000000000000000, 0.0000000000000000000 ) ) ;
#128 = DIRECTION ( 'NONE',  ( -0.0000000000000000000, -0.0000000000000000000, 1.000000000000000000 ) ) ;
#129 = CARTESIAN_POINT ( 'NONE',  ( 0.0000000000000000000, 0.0000000000000000000, -1.995509924221768000 ) ) ;
#130 = AXIS2_PLACEMENT_3D ( 'NONE', #129, #128, #127 ) ;
#131 = DIRECTION ( 'NONE',  ( 0.0000000000000000000, 1.000000000000000000, 0.0000000000000000000 ) ) ;
#132 = DIRECTION ( 'NONE',  ( -1.000000000000000000, 0.0000000000000000000, 0.0000000000000000000 ) ) ;
#133 = CARTESIAN_POINT ( 'NONE',  ( 0.0000000000000000000, 0.0000000000000000000, -16.11500000000000200 ) ) ;
#134 = AXIS2_PLACEMENT_3D ( 'NONE', #133, #132, #131 ) ;
#135 = CIRCLE ( 'NONE', #130, 15.00000000000000200 ) ;
#136 = SPHERICAL_SURFACE ( 'NONE', #134, 20.60000000000000100 ) ;
#137 =( GEOMETRIC_REPRESENTATION_CONTEXT ( 3 ) GLOBAL_UNCERTAINTY_ASSIGNED_CONTEXT ( ( #138 ) ) GLOBAL_UNIT_ASSIGNED_CONTEXT ( ( #141, #140, #139 ) ) REPRESENTATION_CONTEXT ( 'NONE', 'WORKASPACE' ) );
#138 = UNCERTAINTY_MEASURE_WITH_UNIT (LENGTH_MEASURE( 1.000000000000000100E-005 ), #141, 'distance_accuracy_value', 'NONE');
#139 =( NAMED_UNIT ( * ) SI_UNIT ( $, .STERADIAN. ) SOLID_ANGLE_UNIT ( ) );
#140 =( NAMED_UNIT ( * ) PLANE_ANGLE_UNIT ( ) SI_UNIT ( $, .RADIAN. ) );
#141 =( LENGTH_UNIT ( ) NAMED_UNIT ( * ) SI_UNIT ( .MILLI., .METRE. ) );
#142 = MECHANICAL_DESIGN_GEOMETRIC_PRESENTATION_REPRESENTATION (  '', ( #144 ), #137 ) ;
#143 = PRESENTATION_LAYER_ASSIGNMENT (  '', '', ( #144 ) ) ;
#144 = STYLED_ITEM ( 'NONE', ( #145 ), #34 ) ;
#145 = PRESENTATION_STYLE_ASSIGNMENT (( #146 ) ) ;
#146 = SURFACE_STYLE_USAGE ( .BOTH. , #147 ) ;
#147 = SURFACE_SIDE_STYLE ('',( #148 ) ) ;
#148 = SURFACE_STYLE_FILL_AREA ( #149 ) ;
#149 = FILL_AREA_STYLE ('',( #156 ) ) ;
#150 = COLOUR_RGB ( '',0.9568627450980391500, 0.9490196078431372100, 0.9607843137254902200 ) ;
#151 = FACE_OUTER_BOUND ( 'NONE', #35, .T. ) ;
#152 = DIRECTION ( 'NONE',  ( -0.0000000000000000000, -0.0000000000000000000, 1.000000000000000000 ) ) ;
#153 = VECTOR ( 'NONE', #152, 1000.000000000000000 ) ;
#154 = CARTESIAN_POINT ( 'NONE',  ( 15.00000000000000000, 0.0000000000000000000, 4.308132045400366600 ) ) ;
#155 = LINE ( 'NONE', #154, #153 ) ;
#156 = FILL_AREA_STYLE_COLOUR ( '', #150 ) ;
#157 = CARTESIAN_POINT ( 'NONE',  ( 15.00000000000000400, 0.0000000000000000000, -1.995509924221768000 ) ) ;
#158 = DIRECTION ( 'NONE',  ( 1.000000000000000000, 0.0000000000000000000, 0.0000000000000000000 ) ) ;
#159 = DIRECTION ( 'NONE',  ( -0.0000000000000000000, -0.0000000000000000000, 1.000000000000000000 ) ) ;
#160 = CARTESIAN_POINT ( 'NONE',  ( 0.0000000000000000000, 0.0000000000000000000, -1.995509924221768000 ) ) ;
#161 = AXIS2_PLACEMENT_3D ( 'NONE', #160, #159, #158 ) ;
#162 = CIRCLE ( 'NONE', #161, 15.00000000000000200 ) ;
#163 = CARTESIAN_POINT ( 'NONE',  ( 0.0000000000000000000, 15.00000000000000200, -1.995509924221768000 ) ) ;
#164 = DIRECTION ( 'NONE',  ( 1.000000000000000000, 0.0000000000000000000, 0.0000000000000000000 ) ) ;
#165 = DIRECTION ( 'NONE',  ( -0.0000000000000000000, -0.0000000000000000000, 1.000000000000000000 ) ) ;
#166 = AXIS2_PLACEMENT_3D ( 'NONE', #71, #165, #164 ) ;
#167 = CIRCLE ( 'NONE', #166, 15.00000000000000200 ) ;
#168 =( NAMED_UNIT ( * ) SI_UNIT ( $, .STERADIAN. ) SOLID_ANGLE_UNIT ( ) );
#169 =( NAMED_UNIT ( * ) SI_UNIT ( $, .STERADIAN. ) SOLID_ANGLE_UNIT ( ) );
#170 =( NAMED_UNIT ( * ) PLANE_ANGLE_UNIT ( ) SI_UNIT ( $, .RADIAN. ) );
#171 = DIRECTION ( 'NONE',  ( -1.000000000000000000, 1.224606353822377300E-016, 0.0000000000000000000 ) ) ;
#172 = CARTESIAN_POINT ( 'NONE',  ( 0.0000000000000000000, 0.0000000000000000000, -16.11500000000000200 ) ) ;
#173 = AXIS2_PLACEMENT_3D ( 'NONE', #172, #171, #221 ) ;
#174 = DIRECTION ( 'NONE',  ( 0.0000000000000000000, 1.000000000000000000, 0.0000000000000000000 ) ) ;
#175 = DIRECTION ( 'NONE',  ( -1.000000000000000000, 0.0000000000000000000, 0.0000000000000000000 ) ) ;
#176 = CARTESIAN_POINT ( 'NONE',  ( 0.0000000000000000000, 0.0000000000000000000, -16.11500000000000200 ) ) ;
#177 = AXIS2_PLACEMENT_3D ( 'NONE', #176, #175, #174 ) ;
#178 = DIRECTION ( 'NONE',  ( 1.000000000000000000, 0.0000000000000000000, 0.0000000000000000000 ) ) ;
#179 = DIRECTION ( 'NONE',  ( 0.0000000000000000000, -0.0000000000000000000, 1.000000000000000000 ) ) ;
#180 = CARTESIAN_POINT ( 'NONE',  ( 0.0000000000000000000, 1.647762268252763800E-015, -4.485000000000000300 ) ) ;
#181 = COLOUR_RGB ( '',0.9568627450980391500, 0.9490196078431372100, 0.9607843137254902200 ) ;
#182 = FACE_OUTER_BOUND ( 'NONE', #13, .T. ) ;
#183 =( NAMED_UNIT ( * ) PLANE_ANGLE_UNIT ( ) SI_UNIT ( $, .RADIAN. ) );
#184 = DIRECTION ( 'NONE',  ( -0.0000000000000000000, -0.0000000000000000000, 1.000000000000000000 ) ) ;
#185 = CARTESIAN_POINT ( 'NONE',  ( 0.0000000000000000000, 0.0000000000000000000, 4.308132045400366600 ) ) ;
#186 = AXIS2_PLACEMENT_3D ( 'NONE', #185, #184, #241 ) ;
#187 = CYLINDRICAL_SURFACE ( 'NONE', #186, 15.00000000000000000 ) ;
#188 = FACE_OUTER_BOUND ( 'NONE', #25, .T. ) ;
#189 = FILL_AREA_STYLE_COLOUR ( '', #240 ) ;
#190 = CIRCLE ( 'NONE', #173, 20.60000000000000100 ) ;
#191 = SPHERICAL_SURFACE ( 'NONE', #177, 20.60000000000000100 ) ;
#192 =( GEOMETRIC_REPRESENTATION_CONTEXT ( 3 ) GLOBAL_UNCERTAINTY_ASSIGNED_CONTEXT ( ( #244 ) ) GLOBAL_UNIT_ASSIGNED_CONTEXT ( ( #194, #170, #169 ) ) REPRESENTATION_CONTEXT ( 'NONE', 'WORKASPACE' ) );
#193 = PLANE ( 'NONE',  #242 ) ;
#194 =( LENGTH_UNIT ( ) NAMED_UNIT ( * ) SI_UNIT ( .MILLI., .METRE. ) );
#195 = MECHANICAL_DESIGN_GEOMETRIC_PRESENTATION_REPRESENTATION (  '', ( #234 ), #192 ) ;
#196 = CARTESIAN_POINT ( 'NONE',  ( 0.0000000000000000000, 0.0000000000000000000, 0.0000000000000000000 ) ) ;
#197 = SHAPE_DEFINITION_REPRESENTATION ( #258, #214 ) ;
#198 = DIRECTION ( 'NONE',  ( 1.000000000000000000, 0.0000000000000000000, 0.0000000000000000000 ) ) ;
#199 =( GEOMETRIC_REPRESENTATION_CONTEXT ( 3 ) GLOBAL_UNCERTAINTY_ASSIGNED_CONTEXT ( ( #200 ) ) GLOBAL_UNIT_ASSIGNED_CONTEXT ( ( #203, #202, #201 ) ) REPRESENTATION_CONTEXT ( 'NONE', 'WORKASPACE' ) );
#200 = UNCERTAINTY_MEASURE_WITH_UNIT (LENGTH_MEASURE( 1.000000000000000100E-005 ), #203, 'distance_accuracy_value', 'NONE');
#201 =( NAMED_UNIT ( * ) SI_UNIT ( $, .STERADIAN. ) SOLID_ANGLE_UNIT ( ) );
#202 =( NAMED_UNIT ( * ) PLANE_ANGLE_UNIT ( ) SI_UNIT ( $, .RADIAN. ) );
#203 =( LENGTH_UNIT ( ) NAMED_UNIT ( * ) SI_UNIT ( .MILLI., .METRE. ) );
#204 = MECHANICAL_DESIGN_GEOMETRIC_PRESENTATION_REPRESENTATION (  '', ( #206 ), #199 ) ;
#205 = PRESENTATION_LAYER_ASSIGNMENT (  '', '', ( #206 ) ) ;
#206 = STYLED_ITEM ( 'NONE', ( #207 ), #214 ) ;
#207 = PRESENTATION_STYLE_ASSIGNMENT (( #208 ) ) ;
#208 = SURFACE_STYLE_USAGE ( .BOTH. , #209 ) ;
#209 = SURFACE_SIDE_STYLE ('',( #210 ) ) ;
#210 = SURFACE_STYLE_FILL_AREA ( #211 ) ;
#211 = FILL_AREA_STYLE ('',( #212 ) ) ;
#212 = FILL_AREA_STYLE_COLOUR ( '', #213 ) ;
#213 = COLOUR_RGB ( '',0.7960784313725489700, 0.8235294117647058400, 0.9372549019607843100 ) ;
#214 = ADVANCED_BREP_SHAPE_REPRESENTATION ( '4506-E0W', ( #40, #219 ), #215 ) ;
#215 =( GEOMETRIC_REPRESENTATION_CONTEXT ( 3 ) GLOBAL_UNCERTAINTY_ASSIGNED_CONTEXT ( ( #230 ) ) GLOBAL_UNIT_ASSIGNED_CONTEXT ( ( #218, #232, #231 ) ) REPRESENTATION_CONTEXT ( 'NONE', 'WORKASPACE' ) );
#216 = UNCERTAINTY_MEASURE_WITH_UNIT (LENGTH_MEASURE( 1.000000000000000100E-005 ), #50, 'distance_accuracy_value', 'NONE');
#217 = DIRECTION ( 'NONE',  ( 0.0000000000000000000, 0.0000000000000000000, 1.000000000000000000 ) ) ;
#218 =( LENGTH_UNIT ( ) NAMED_UNIT ( * ) SI_UNIT ( .MILLI., .METRE. ) );
#219 = AXIS2_PLACEMENT_3D ( 'NONE', #196, #217, #198 ) ;
#220 = CARTESIAN_POINT ( 'NONE',  ( 0.0000000000000000000, 1.261344544437048600E-015, 4.484999999999999400 ) ) ;
#221 = DIRECTION ( 'NONE',  ( -1.224606353822377300E-016, -1.000000000000000000, 0.0000000000000000000 ) ) ;
#222 = PRODUCT_DEFINITION ( 'UNKNOWN', '', #260, #223 ) ;
#223 = PRODUCT_DEFINITION_CONTEXT ( 'detailed design', #225, 'design' ) ;
#224 = APPLICATION_PROTOCOL_DEFINITION ( 'draft international standard', 'automotive_design', 1998, #225 ) ;
#225 = APPLICATION_CONTEXT ( 'automotive_design' ) ;
#226 = PRODUCT ( '4506-E0W', '4506-E0W', '', ( #227 ) ) ;
#227 = PRODUCT_CONTEXT ( 'NONE', #261, 'mechanical' ) ;
#228 = APPLICATION_PROTOCOL_DEFINITION ( 'draft international standard', 'automotive_design', 1998, #261 ) ;
#229 =( GEOMETRIC_REPRESENTATION_CONTEXT ( 3 ) GLOBAL_UNCERTAINTY_ASSIGNED_CONTEXT ( ( #255 ) ) GLOBAL_UNIT_ASSIGNED_CONTEXT ( ( #256, #246, #245 ) ) REPRESENTATION_CONTEXT ( 'NONE', 'WORKASPACE' ) );
#230 = UNCERTAINTY_MEASURE_WITH_UNIT (LENGTH_MEASURE( 1.000000000000000100E-005 ), #218, 'distance_accuracy_value', 'NONE');
#231 =( NAMED_UNIT ( * ) SI_UNIT ( $, .STERADIAN. ) SOLID_ANGLE_UNIT ( ) );
#232 =( NAMED_UNIT ( * ) PLANE_ANGLE_UNIT ( ) SI_UNIT ( $, .RADIAN. ) );
#233 = PRESENTATION_LAYER_ASSIGNMENT (  '', '', ( #234 ) ) ;
#234 = STYLED_ITEM ( 'NONE', ( #235 ), #90 ) ;
#235 = PRESENTATION_STYLE_ASSIGNMENT (( #236 ) ) ;
#236 = SURFACE_STYLE_USAGE ( .BOTH. , #237 ) ;
#237 = SURFACE_SIDE_STYLE ('',( #238 ) ) ;
#238 = SURFACE_STYLE_FILL_AREA ( #239 ) ;
#239 = FILL_AREA_STYLE ('',( #189 ) ) ;
#240 = COLOUR_RGB ( '',0.9568627450980391500, 0.9490196078431372100, 0.9607843137254902200 ) ;
#241 = DIRECTION ( 'NONE',  ( 1.000000000000000000, 0.0000000000000000000, 0.0000000000000000000 ) ) ;
#242 = AXIS2_PLACEMENT_3D ( 'NONE', #180, #179, #178 ) ;
#243 =( GEOMETRIC_REPRESENTATION_CONTEXT ( 3 ) GLOBAL_UNCERTAINTY_ASSIGNED_CONTEXT ( ( #216 ) ) GLOBAL_UNIT_ASSIGNED_CONTEXT ( ( #50, #183, #168 ) ) REPRESENTATION_CONTEXT ( 'NONE', 'WORKASPACE' ) );
#244 = UNCERTAINTY_MEASURE_WITH_UNIT (LENGTH_MEASURE( 1.000000000000000100E-005 ), #194, 'distance_accuracy_value', 'NONE');
#245 =( NAMED_UNIT ( * ) SI_UNIT ( $, .STERADIAN. ) SOLID_ANGLE_UNIT ( ) );
#246 =( NAMED_UNIT ( * ) PLANE_ANGLE_UNIT ( ) SI_UNIT ( $, .RADIAN. ) );
#247 = PRESENTATION_LAYER_ASSIGNMENT (  '', '', ( #248 ) ) ;
#248 = STYLED_ITEM ( 'NONE', ( #249 ), #89 ) ;
#249 = PRESENTATION_STYLE_ASSIGNMENT (( #250 ) ) ;
#250 = SURFACE_STYLE_USAGE ( .BOTH. , #251 ) ;
#251 = SURFACE_SIDE_STYLE ('',( #252 ) ) ;
#252 = SURFACE_STYLE_FILL_AREA ( #253 ) ;
#253 = FILL_AREA_STYLE ('',( #254 ) ) ;
#254 = FILL_AREA_STYLE_COLOUR ( '', #181 ) ;
#255 = UNCERTAINTY_MEASURE_WITH_UNIT (LENGTH_MEASURE( 1.000000000000000100E-005 ), #256, 'distance_accuracy_value', 'NONE');
#256 =( LENGTH_UNIT ( ) NAMED_UNIT ( * ) SI_UNIT ( .MILLI., .METRE. ) );
#257 = MECHANICAL_DESIGN_GEOMETRIC_PRESENTATION_REPRESENTATION (  '', ( #248 ), #229 ) ;
#258 = PRODUCT_DEFINITION_SHAPE ( 'NONE', 'NONE',  #222 ) ;
#259 = PRODUCT_RELATED_PRODUCT_CATEGORY ( 'part', '', ( #226 ) ) ;
#260 = PRODUCT_DEFINITION_FORMATION_WITH_SPECIFIED_SOURCE ( 'ANY', '', #226, .NOT_KNOWN. ) ;
#261 = APPLICATION_CONTEXT ( 'automotive_design' ) ;
ENDSEC;
END-ISO-10303-21;
