ISO-10303-21;
HEADER;
FILE_DESCRIPTION (( 'STEP AP203' ),
    '1' );
FILE_NAME ('Web Model 84487_48190.step',
    '2017-05-19T15:01:21',
    ( '' ),
    ( '' ),
    'SwSTEP 2.0',
    'SolidWorks 2016',
    '' );
FILE_SCHEMA (( 'CONFIG_CONTROL_DESIGN' ));
ENDSEC;

DATA;
#1 = ADVANCED_FACE ( 'NONE', ( #118 ), #38, .T. ) ;
#2 = APPROVAL_DATE_TIME ( #56, #105 ) ;
#3 = DATE_AND_TIME ( #170, #100 ) ;
#4 = DIRECTION ( 'NONE',  ( -0.0000000000000000000, -0.0000000000000000000, -1.000000000000000000 ) ) ;
#5 = APPROVAL ( #60, 'UNSPECIFIED' ) ;
#6 = COORDINATED_UNIVERSAL_TIME_OFFSET ( 5, 0, .BEHIND. ) ;
#7 = CARTESIAN_POINT ( 'NONE',  ( 0.0000000000000000000, 0.0000000000000000000, 0.0000000000000000000 ) ) ;
#8 = PERSON_AND_ORGANIZATION_ROLE ( 'creator' ) ;
#9 = APPROVAL_ROLE ( '' ) ;
#10 = APPLICATION_CONTEXT ( 'configuration controlled 3d designs of mechanical parts and assemblies' ) ;
#11 = PERSON_AND_ORGANIZATION ( #68, #84 ) ;
#12 = DIRECTION ( 'NONE',  ( 0.0000000000000000000, 0.0000000000000000000, 1.000000000000000000 ) ) ;
#13 = CYLINDRICAL_SURFACE ( 'NONE', #142, 12.50000000000000000 ) ;
#14 = ORIENTED_EDGE ( 'NONE', *, *, #156, .T. ) ;
#15 = CC_DESIGN_SECURITY_CLASSIFICATION ( #57, ( #126 ) ) ;
#16 = FACE_OUTER_BOUND ( 'NONE', #55, .T. ) ;
#17 = ADVANCED_BREP_SHAPE_REPRESENTATION ( 'Web Model 84487_48190', ( #121, #120 ), #86 ) ;
#18 = CARTESIAN_POINT ( 'NONE',  ( -12.50000000000000000, 0.0000000000000000000, 0.0000000000000000000 ) ) ;
#19 = CARTESIAN_POINT ( 'NONE',  ( 0.0000000000000000000, 0.0000000000000000000, 2.000000000000000000 ) ) ;
#20 = CARTESIAN_POINT ( 'NONE',  ( 12.50000000000000000, 1.530808498934191500E-015, 2.000000000000000000 ) ) ;
#21 = PERSON_AND_ORGANIZATION_ROLE ( 'creator' ) ;
#22 = PERSON_AND_ORGANIZATION ( #68, #84 ) ;
#23 =( LENGTH_UNIT ( ) NAMED_UNIT ( * ) SI_UNIT ( .MILLI., .METRE. ) );
#24 = AXIS2_PLACEMENT_3D ( 'NONE', #19, #96, #28 ) ;
#25 = PRODUCT ( 'Web Model 84487_48190', 'Web Model 84487_48190', '', ( #169 ) ) ;
#26 = EDGE_LOOP ( 'NONE', ( #77, #14, #132, #119 ) ) ;
#27 = COORDINATED_UNIVERSAL_TIME_OFFSET ( 5, 0, .BEHIND. ) ;
#28 = DIRECTION ( 'NONE',  ( 1.000000000000000000, 0.0000000000000000000, 0.0000000000000000000 ) ) ;
#29 = CC_DESIGN_APPROVAL ( #105, ( #92 ) ) ;
#30 = ORIENTED_EDGE ( 'NONE', *, *, #131, .T. ) ;
#31 = PERSON_AND_ORGANIZATION ( #68, #84 ) ;
#32 = EDGE_CURVE ( 'NONE', #33, #110, #66, .T. ) ;
#33 = VERTEX_POINT ( 'NONE', #18 ) ;
#34 = DATE_AND_TIME ( #104, #137 ) ;
#35 = CARTESIAN_POINT ( 'NONE',  ( 0.0000000000000000000, 0.0000000000000000000, 0.0000000000000000000 ) ) ;
#36 = DATE_TIME_ROLE ( 'creation_date' ) ;
#37 =( NAMED_UNIT ( * ) SI_UNIT ( $, .STERADIAN. ) SOLID_ANGLE_UNIT ( ) );
#38 = CYLINDRICAL_SURFACE ( 'NONE', #44, 12.50000000000000000 ) ;
#39 = COORDINATED_UNIVERSAL_TIME_OFFSET ( 5, 0, .BEHIND. ) ;
#40 = ORIENTED_EDGE ( 'NONE', *, *, #173, .T. ) ;
#41 = DIRECTION ( 'NONE',  ( 1.000000000000000000, 0.0000000000000000000, 0.0000000000000000000 ) ) ;
#42 = AXIS2_PLACEMENT_3D ( 'NONE', #35, #111, #162 ) ;
#43 = PERSON_AND_ORGANIZATION_ROLE ( 'design_owner' ) ;
#44 = AXIS2_PLACEMENT_3D ( 'NONE', #112, #4, #48 ) ;
#45 = CIRCLE ( 'NONE', #154, 12.50000000000000000 ) ;
#46 = CC_DESIGN_PERSON_AND_ORGANIZATION_ASSIGNMENT ( #22, #8, ( #92 ) ) ;
#47 = ADVANCED_FACE ( 'NONE', ( #139 ), #13, .T. ) ;
#48 = DIRECTION ( 'NONE',  ( -1.000000000000000000, 0.0000000000000000000, 0.0000000000000000000 ) ) ;
#49 = CC_DESIGN_PERSON_AND_ORGANIZATION_ASSIGNMENT ( #165, #129, ( #57 ) ) ;
#50 = CARTESIAN_POINT ( 'NONE',  ( 0.0000000000000000000, 0.0000000000000000000, 2.000000000000000000 ) ) ;
#51 = VECTOR ( 'NONE', #54, 1000.000000000000000 ) ;
#52 = CALENDAR_DATE ( 2017, 19, 5 ) ;
#53 = APPROVAL_ROLE ( '' ) ;
#54 = DIRECTION ( 'NONE',  ( -0.0000000000000000000, -0.0000000000000000000, -1.000000000000000000 ) ) ;
#55 = EDGE_LOOP ( 'NONE', ( #95, #158 ) ) ;
#56 = DATE_AND_TIME ( #109, #83 ) ;
#57 = SECURITY_CLASSIFICATION ( '', '', #88 ) ;
#58 = CC_DESIGN_PERSON_AND_ORGANIZATION_ASSIGNMENT ( #148, #21, ( #126 ) ) ;
#59 = DIRECTION ( 'NONE',  ( 0.0000000000000000000, 0.0000000000000000000, 1.000000000000000000 ) ) ;
#60 = APPROVAL_STATUS ( 'not_yet_approved' ) ;
#61 = CC_DESIGN_APPROVAL ( #136, ( #126 ) ) ;
#62 = DIRECTION ( 'NONE',  ( 0.0000000000000000000, 0.0000000000000000000, 1.000000000000000000 ) ) ;
#63 = AXIS2_PLACEMENT_3D ( 'NONE', #117, #12, #103 ) ;
#64 = EDGE_LOOP ( 'NONE', ( #30, #40 ) ) ;
#65 = CC_DESIGN_PERSON_AND_ORGANIZATION_ASSIGNMENT ( #146, #43, ( #25 ) ) ;
#66 = CIRCLE ( 'NONE', #125, 12.50000000000000000 ) ;
#67 = EDGE_CURVE ( 'NONE', #94, #33, #143, .T. ) ;
#68 = PERSON ( 'UNSPECIFIED', 'UNSPECIFIED', 'UNSPECIFIED', ('UNSPECIFIED'), ('UNSPECIFIED'), ('UNSPECIFIED') ) ;
#69 = ORIENTED_EDGE ( 'NONE', *, *, #67, .T. ) ;
#70 = DIRECTION ( 'NONE',  ( 1.000000000000000000, 0.0000000000000000000, 0.0000000000000000000 ) ) ;
#71 = CARTESIAN_POINT ( 'NONE',  ( -12.50000000000000000, 0.0000000000000000000, 2.000000000000000000 ) ) ;
#72 = CC_DESIGN_DATE_AND_TIME_ASSIGNMENT ( #3, #150, ( #57 ) ) ;
#73 = DIRECTION ( 'NONE',  ( -0.0000000000000000000, -0.0000000000000000000, -1.000000000000000000 ) ) ;
#74 = PERSON_AND_ORGANIZATION ( #68, #84 ) ;
#75 = DIRECTION ( 'NONE',  ( 1.000000000000000000, 0.0000000000000000000, 0.0000000000000000000 ) ) ;
#76 = PERSON_AND_ORGANIZATION_ROLE ( 'design_supplier' ) ;
#77 = ORIENTED_EDGE ( 'NONE', *, *, #173, .F. ) ;
#78 = APPROVAL_DATE_TIME ( #153, #136 ) ;
#79 = CC_DESIGN_DATE_AND_TIME_ASSIGNMENT ( #172, #36, ( #92 ) ) ;
#80 = SHAPE_DEFINITION_REPRESENTATION ( #98, #17 ) ;
#81 = UNCERTAINTY_MEASURE_WITH_UNIT (LENGTH_MEASURE( 1.000000000000000100E-005 ), #23, 'distance_accuracy_value', 'NONE');
#82 = CLOSED_SHELL ( 'NONE', ( #47, #1, #167, #128 ) ) ;
#83 = LOCAL_TIME ( 11, 1, 21.00000000000000000, #6 ) ;
#84 = ORGANIZATION ( 'UNSPECIFIED', 'UNSPECIFIED', '' ) ;
#85 = COORDINATED_UNIVERSAL_TIME_OFFSET ( 5, 0, .BEHIND. ) ;
#86 =( GEOMETRIC_REPRESENTATION_CONTEXT ( 3 ) GLOBAL_UNCERTAINTY_ASSIGNED_CONTEXT ( ( #81 ) ) GLOBAL_UNIT_ASSIGNED_CONTEXT ( ( #23, #130, #37 ) ) REPRESENTATION_CONTEXT ( 'NONE', 'WORKASPACE' ) );
#87 = APPLICATION_PROTOCOL_DEFINITION ( 'international standard', 'config_control_design', 1994, #10 ) ;
#88 = SECURITY_CLASSIFICATION_LEVEL ( 'unclassified' ) ;
#89 = AXIS2_PLACEMENT_3D ( 'NONE', #133, #91, #168 ) ;
#90 = APPLICATION_CONTEXT ( 'configuration controlled 3d designs of mechanical parts and assemblies' ) ;
#91 = DIRECTION ( 'NONE',  ( 0.0000000000000000000, 0.0000000000000000000, 1.000000000000000000 ) ) ;
#92 = PRODUCT_DEFINITION ( 'UNKNOWN', '', #126, #107 ) ;
#93 = LINE ( 'NONE', #147, #51 ) ;
#94 = VERTEX_POINT ( 'NONE', #123 ) ;
#95 = ORIENTED_EDGE ( 'NONE', *, *, #32, .F. ) ;
#96 = DIRECTION ( 'NONE',  ( 0.0000000000000000000, 0.0000000000000000000, 1.000000000000000000 ) ) ;
#97 = CC_DESIGN_APPROVAL ( #5, ( #57 ) ) ;
#98 = PRODUCT_DEFINITION_SHAPE ( 'NONE', 'NONE',  #92 ) ;
#99 = CIRCLE ( 'NONE', #24, 12.50000000000000000 ) ;
#100 = LOCAL_TIME ( 11, 1, 21.00000000000000000, #27 ) ;
#101 = APPROVAL_ROLE ( '' ) ;
#102 = DIRECTION ( 'NONE',  ( 0.0000000000000000000, 0.0000000000000000000, 1.000000000000000000 ) ) ;
#103 = DIRECTION ( 'NONE',  ( 1.000000000000000000, 0.0000000000000000000, -0.0000000000000000000 ) ) ;
#104 = CALENDAR_DATE ( 2017, 19, 5 ) ;
#105 = APPROVAL ( #171, 'UNSPECIFIED' ) ;
#106 = CARTESIAN_POINT ( 'NONE',  ( 0.0000000000000000000, 0.0000000000000000000, 2.000000000000000000 ) ) ;
#107 = DESIGN_CONTEXT ( 'detailed design', #10, 'design' ) ;
#108 = APPROVAL_PERSON_ORGANIZATION ( #31, #5, #9 ) ;
#109 = CALENDAR_DATE ( 2017, 19, 5 ) ;
#110 = VERTEX_POINT ( 'NONE', #149 ) ;
#111 = DIRECTION ( 'NONE',  ( 0.0000000000000000000, 0.0000000000000000000, 1.000000000000000000 ) ) ;
#112 = CARTESIAN_POINT ( 'NONE',  ( 0.0000000000000000000, 0.0000000000000000000, 2.000000000000000000 ) ) ;
#113 = PLANE ( 'NONE',  #42 ) ;
#114 = APPLICATION_PROTOCOL_DEFINITION ( 'international standard', 'config_control_design', 1994, #90 ) ;
#115 = APPROVAL_PERSON_ORGANIZATION ( #74, #105, #53 ) ;
#116 = FACE_OUTER_BOUND ( 'NONE', #64, .T. ) ;
#117 = CARTESIAN_POINT ( 'NONE',  ( 0.0000000000000000000, 0.0000000000000000000, 2.000000000000000000 ) ) ;
#118 = FACE_OUTER_BOUND ( 'NONE', #164, .T. ) ;
#119 = ORIENTED_EDGE ( 'NONE', *, *, #67, .F. ) ;
#120 = AXIS2_PLACEMENT_3D ( 'NONE', #141, #62, #75 ) ;
#121 = MANIFOLD_SOLID_BREP ( 'Extrude1', #82 ) ;
#122 = CC_DESIGN_PERSON_AND_ORGANIZATION_ASSIGNMENT ( #124, #76, ( #126 ) ) ;
#123 = CARTESIAN_POINT ( 'NONE',  ( -12.50000000000000000, 0.0000000000000000000, 2.000000000000000000 ) ) ;
#124 = PERSON_AND_ORGANIZATION ( #68, #84 ) ;
#125 = AXIS2_PLACEMENT_3D ( 'NONE', #7, #59, #70 ) ;
#126 = PRODUCT_DEFINITION_FORMATION_WITH_SPECIFIED_SOURCE ( 'ANY', '', #25, .NOT_KNOWN. ) ;
#127 = VERTEX_POINT ( 'NONE', #20 ) ;
#128 = ADVANCED_FACE ( 'NONE', ( #16 ), #113, .F. ) ;
#129 = PERSON_AND_ORGANIZATION_ROLE ( 'classification_officer' ) ;
#130 =( NAMED_UNIT ( * ) PLANE_ANGLE_UNIT ( ) SI_UNIT ( $, .RADIAN. ) );
#131 = EDGE_CURVE ( 'NONE', #94, #127, #99, .T. ) ;
#132 = ORIENTED_EDGE ( 'NONE', *, *, #152, .T. ) ;
#133 = CARTESIAN_POINT ( 'NONE',  ( 0.0000000000000000000, 0.0000000000000000000, 0.0000000000000000000 ) ) ;
#134 = APPROVAL_DATE_TIME ( #34, #5 ) ;
#135 = APPROVAL_PERSON_ORGANIZATION ( #11, #136, #101 ) ;
#136 = APPROVAL ( #145, 'UNSPECIFIED' ) ;
#137 = LOCAL_TIME ( 11, 1, 21.00000000000000000, #39 ) ;
#138 = VECTOR ( 'NONE', #161, 1000.000000000000000 ) ;
#139 = FACE_OUTER_BOUND ( 'NONE', #26, .T. ) ;
#140 = LOCAL_TIME ( 11, 1, 21.00000000000000000, #155 ) ;
#141 = CARTESIAN_POINT ( 'NONE',  ( 0.0000000000000000000, 0.0000000000000000000, 0.0000000000000000000 ) ) ;
#142 = AXIS2_PLACEMENT_3D ( 'NONE', #50, #73, #157 ) ;
#143 = LINE ( 'NONE', #71, #138 ) ;
#144 = CALENDAR_DATE ( 2017, 19, 5 ) ;
#145 = APPROVAL_STATUS ( 'not_yet_approved' ) ;
#146 = PERSON_AND_ORGANIZATION ( #68, #84 ) ;
#147 = CARTESIAN_POINT ( 'NONE',  ( 12.50000000000000000, 1.530808498934191500E-015, 2.000000000000000000 ) ) ;
#148 = PERSON_AND_ORGANIZATION ( #68, #84 ) ;
#149 = CARTESIAN_POINT ( 'NONE',  ( 12.50000000000000000, 1.530808498934191500E-015, 0.0000000000000000000 ) ) ;
#150 = DATE_TIME_ROLE ( 'classification_date' ) ;
#151 = ORIENTED_EDGE ( 'NONE', *, *, #32, .T. ) ;
#152 = EDGE_CURVE ( 'NONE', #110, #33, #163, .T. ) ;
#153 = DATE_AND_TIME ( #52, #159 ) ;
#154 = AXIS2_PLACEMENT_3D ( 'NONE', #106, #102, #41 ) ;
#155 = COORDINATED_UNIVERSAL_TIME_OFFSET ( 5, 0, .BEHIND. ) ;
#156 = EDGE_CURVE ( 'NONE', #127, #110, #93, .T. ) ;
#157 = DIRECTION ( 'NONE',  ( -1.000000000000000000, 0.0000000000000000000, 0.0000000000000000000 ) ) ;
#158 = ORIENTED_EDGE ( 'NONE', *, *, #152, .F. ) ;
#159 = LOCAL_TIME ( 11, 1, 21.00000000000000000, #85 ) ;
#160 = ORIENTED_EDGE ( 'NONE', *, *, #156, .F. ) ;
#161 = DIRECTION ( 'NONE',  ( -0.0000000000000000000, -0.0000000000000000000, -1.000000000000000000 ) ) ;
#162 = DIRECTION ( 'NONE',  ( 1.000000000000000000, 0.0000000000000000000, -0.0000000000000000000 ) ) ;
#163 = CIRCLE ( 'NONE', #89, 12.50000000000000000 ) ;
#164 = EDGE_LOOP ( 'NONE', ( #160, #174, #69, #151 ) ) ;
#165 = PERSON_AND_ORGANIZATION ( #68, #84 ) ;
#166 = PLANE ( 'NONE',  #63 ) ;
#167 = ADVANCED_FACE ( 'NONE', ( #116 ), #166, .T. ) ;
#168 = DIRECTION ( 'NONE',  ( 1.000000000000000000, 0.0000000000000000000, 0.0000000000000000000 ) ) ;
#169 = MECHANICAL_CONTEXT ( 'NONE', #90, 'mechanical' ) ;
#170 = CALENDAR_DATE ( 2017, 19, 5 ) ;
#171 = APPROVAL_STATUS ( 'not_yet_approved' ) ;
#172 = DATE_AND_TIME ( #144, #140 ) ;
#173 = EDGE_CURVE ( 'NONE', #127, #94, #45, .T. ) ;
#174 = ORIENTED_EDGE ( 'NONE', *, *, #131, .F. ) ;
#175 = PRODUCT_RELATED_PRODUCT_CATEGORY ( 'detail', '', ( #25 ) ) ;
ENDSEC;
END-ISO-10303-21;
