ISO-10303-21;
HEADER;
FILE_DESCRIPTION (( 'STEP AP203' ),
    '1' );
FILE_NAME ('step_35936.step',
    '2017-05-22T20:26:00',
    ( '' ),
    ( '' ),
    'SwSTEP 2.0',
    'SolidWorks 2016',
    '' );
FILE_SCHEMA (( 'CONFIG_CONTROL_DESIGN' ));
ENDSEC;

DATA;
#1 = DIRECTION ( 'NONE',  ( 1.000000000000000000, 1.982541115402065100E-016, -0.0000000000000000000 ) ) ;
#2 = DIRECTION ( 'NONE',  ( -0.0000000000000000000, -0.0000000000000000000, -1.000000000000000000 ) ) ;
#3 = PRODUCT_RELATED_PRODUCT_CATEGORY ( 'detail', '', ( #223 ) ) ;
#4 = DATE_AND_TIME ( #6, #20 ) ;
#5 = CC_DESIGN_SECURITY_CLASSIFICATION ( #41, ( #78 ) ) ;
#6 = CALENDAR_DATE ( 2017, 22, 5 ) ;
#7 = DIRECTION ( 'NONE',  ( 0.0000000000000000000, -1.000000000000000000, 0.0000000000000000000 ) ) ;
#8 = COORDINATED_UNIVERSAL_TIME_OFFSET ( 7, 0, .BEHIND. ) ;
#9 = DIRECTION ( 'NONE',  ( 1.982541115402065100E-016, -1.000000000000000000, 0.0000000000000000000 ) ) ;
#10 = DIRECTION ( 'NONE',  ( 0.0000000000000000000, 1.000000000000000000, 0.0000000000000000000 ) ) ;
#11 = APPROVAL_PERSON_ORGANIZATION ( #14, #18, #185 ) ;
#12 = CC_DESIGN_APPROVAL ( #18, ( #41 ) ) ;
#13 = ADVANCED_FACE ( 'NONE', ( #45 ), #224, .T. ) ;
#14 = PERSON_AND_ORGANIZATION ( #230, #158 ) ;
#15 = DATE_AND_TIME ( #21, #22 ) ;
#16 = CARTESIAN_POINT ( 'NONE',  ( -17.49999999999999600, -17.50000000000000400, 1.000000000000000000 ) ) ;
#17 = ADVANCED_FACE ( 'NONE', ( #103 ), #19, .F. ) ;
#18 = APPROVAL ( #203, 'UNSPECIFIED' ) ;
#19 = PLANE ( 'NONE',  #94 ) ;
#20 = LOCAL_TIME ( 13, 26, 0.0000000000000000000, #31 ) ;
#21 = CALENDAR_DATE ( 2017, 22, 5 ) ;
#22 = LOCAL_TIME ( 13, 26, 0.0000000000000000000, #24 ) ;
#23 = APPLICATION_PROTOCOL_DEFINITION ( 'international standard', 'config_control_design', 1994, #153 ) ;
#24 = COORDINATED_UNIVERSAL_TIME_OFFSET ( 7, 0, .BEHIND. ) ;
#25 = PERSON_AND_ORGANIZATION ( #230, #158 ) ;
#26 = VERTEX_POINT ( 'NONE', #59 ) ;
#27 = CC_DESIGN_DATE_AND_TIME_ASSIGNMENT ( #15, #140, ( #41 ) ) ;
#28 = DIRECTION ( 'NONE',  ( -0.0000000000000000000, -0.0000000000000000000, -1.000000000000000000 ) ) ;
#29 = DIRECTION ( 'NONE',  ( -0.0000000000000000000, -0.0000000000000000000, -1.000000000000000000 ) ) ;
#30 = ORIENTED_EDGE ( 'NONE', *, *, #193, .F. ) ;
#31 = COORDINATED_UNIVERSAL_TIME_OFFSET ( 7, 0, .BEHIND. ) ;
#32 = VERTEX_POINT ( 'NONE', #47 ) ;
#33 = EDGE_CURVE ( 'NONE', #162, #226, #53, .T. ) ;
#34 = DIRECTION ( 'NONE',  ( -1.000000000000000000, -0.0000000000000000000, -0.0000000000000000000 ) ) ;
#35 = PLANE ( 'NONE',  #159 ) ;
#36 = EDGE_CURVE ( 'NONE', #49, #162, #218, .T. ) ;
#37 = APPROVAL_PERSON_ORGANIZATION ( #38, #75, #201 ) ;
#38 = PERSON_AND_ORGANIZATION ( #230, #158 ) ;
#39 = CC_DESIGN_PERSON_AND_ORGANIZATION_ASSIGNMENT ( #25, #71, ( #41 ) ) ;
#40 = ORIENTED_EDGE ( 'NONE', *, *, #33, .F. ) ;
#41 = SECURITY_CLASSIFICATION ( '', '', #66 ) ;
#42 = DATE_AND_TIME ( #55, #48 ) ;
#43 = LOCAL_TIME ( 13, 26, 0.0000000000000000000, #8 ) ;
#44 = DIRECTION ( 'NONE',  ( -0.0000000000000000000, 0.0000000000000000000, 1.000000000000000000 ) ) ;
#45 = FACE_OUTER_BOUND ( 'NONE', #160, .T. ) ;
#46 = EDGE_CURVE ( 'NONE', #26, #49, #142, .T. ) ;
#47 = CARTESIAN_POINT ( 'NONE',  ( 17.50000000000000400, -17.50000000000000400, 0.0000000000000000000 ) ) ;
#48 = LOCAL_TIME ( 13, 26, 0.0000000000000000000, #217 ) ;
#49 = VERTEX_POINT ( 'NONE', #168 ) ;
#50 = APPROVAL_DATE_TIME ( #172, #96 ) ;
#51 = PERSON_AND_ORGANIZATION_ROLE ( 'design_owner' ) ;
#52 = EDGE_LOOP ( 'NONE', ( #76, #167, #228, #30 ) ) ;
#53 = LINE ( 'NONE', #169, #54 ) ;
#54 = VECTOR ( 'NONE', #29, 1000.000000000000000 ) ;
#55 = CALENDAR_DATE ( 2017, 22, 5 ) ;
#56 = CARTESIAN_POINT ( 'NONE',  ( -17.50000000000000000, 17.49999999999999600, 1.000000000000000000 ) ) ;
#57 = CC_DESIGN_PERSON_AND_ORGANIZATION_ASSIGNMENT ( #118, #181, ( #78 ) ) ;
#58 = DATE_AND_TIME ( #216, #43 ) ;
#59 = CARTESIAN_POINT ( 'NONE',  ( -17.49999999999999600, -17.50000000000000400, 1.000000000000000000 ) ) ;
#60 = ORIENTED_EDGE ( 'NONE', *, *, #127, .T. ) ;
#61 = ORIENTED_EDGE ( 'NONE', *, *, #220, .T. ) ;
#62 = EDGE_CURVE ( 'NONE', #176, #88, #148, .T. ) ;
#63 = ADVANCED_BREP_SHAPE_REPRESENTATION ( 'step_35936', ( #163, #108 ), #175 ) ;
#64 = CC_DESIGN_PERSON_AND_ORGANIZATION_ASSIGNMENT ( #221, #90, ( #78 ) ) ;
#65 = DIRECTION ( 'NONE',  ( 1.000000000000000000, 0.0000000000000000000, 0.0000000000000000000 ) ) ;
#66 = SECURITY_CLASSIFICATION_LEVEL ( 'unclassified' ) ;
#67 = ORIENTED_EDGE ( 'NONE', *, *, #46, .T. ) ;
#68 = VECTOR ( 'NONE', #143, 1000.000000000000000 ) ;
#69 = ORIENTED_EDGE ( 'NONE', *, *, #135, .F. ) ;
#70 = CC_DESIGN_APPROVAL ( #75, ( #78 ) ) ;
#71 = PERSON_AND_ORGANIZATION_ROLE ( 'classification_officer' ) ;
#72 = EDGE_LOOP ( 'NONE', ( #61, #194, #69, #150 ) ) ;
#73 =( NAMED_UNIT ( * ) PLANE_ANGLE_UNIT ( ) SI_UNIT ( $, .RADIAN. ) );
#74 =( LENGTH_UNIT ( ) NAMED_UNIT ( * ) SI_UNIT ( .MILLI., .METRE. ) );
#75 = APPROVAL ( #111, 'UNSPECIFIED' ) ;
#76 = ORIENTED_EDGE ( 'NONE', *, *, #220, .F. ) ;
#77 = FACE_OUTER_BOUND ( 'NONE', #227, .T. ) ;
#78 = PRODUCT_DEFINITION_FORMATION_WITH_SPECIFIED_SOURCE ( 'ANY', '', #223, .NOT_KNOWN. ) ;
#79 = CARTESIAN_POINT ( 'NONE',  ( 0.0000000000000000000, 0.0000000000000000000, 1.000000000000000000 ) ) ;
#80 = CC_DESIGN_DATE_AND_TIME_ASSIGNMENT ( #42, #213, ( #97 ) ) ;
#81 = ORIENTED_EDGE ( 'NONE', *, *, #36, .T. ) ;
#82 = ORIENTED_EDGE ( 'NONE', *, *, #133, .T. ) ;
#83 = CC_DESIGN_PERSON_AND_ORGANIZATION_ASSIGNMENT ( #200, #124, ( #97 ) ) ;
#84 = PLANE ( 'NONE',  #178 ) ;
#85 = ORIENTED_EDGE ( 'NONE', *, *, #222, .F. ) ;
#86 = CARTESIAN_POINT ( 'NONE',  ( -17.50000000000000000, 17.49999999999999600, 1.000000000000000000 ) ) ;
#87 = CC_DESIGN_APPROVAL ( #96, ( #97 ) ) ;
#88 = VERTEX_POINT ( 'NONE', #155 ) ;
#89 = CARTESIAN_POINT ( 'NONE',  ( -17.50000000000000000, 17.49999999999999600, 1.000000000000000000 ) ) ;
#90 = PERSON_AND_ORGANIZATION_ROLE ( 'creator' ) ;
#91 = CARTESIAN_POINT ( 'NONE',  ( -17.49999999999999600, -17.50000000000000400, 1.000000000000000000 ) ) ;
#92 = APPROVAL_DATE_TIME ( #4, #75 ) ;
#93 = ORIENTED_EDGE ( 'NONE', *, *, #33, .T. ) ;
#94 = AXIS2_PLACEMENT_3D ( 'NONE', #89, #7, #151 ) ;
#95 = PRODUCT_DEFINITION_SHAPE ( 'NONE', 'NONE',  #97 ) ;
#96 = APPROVAL ( #137, 'UNSPECIFIED' ) ;
#97 = PRODUCT_DEFINITION ( 'UNKNOWN', '', #78, #138 ) ;
#98 = DIRECTION ( 'NONE',  ( 1.000000000000000000, 0.0000000000000000000, 0.0000000000000000000 ) ) ;
#99 = CARTESIAN_POINT ( 'NONE',  ( 0.0000000000000000000, 0.0000000000000000000, 0.0000000000000000000 ) ) ;
#100 = PLANE ( 'NONE',  #121 ) ;
#101 = VECTOR ( 'NONE', #114, 1000.000000000000000 ) ;
#102 = FACE_OUTER_BOUND ( 'NONE', #72, .T. ) ;
#103 = FACE_OUTER_BOUND ( 'NONE', #206, .T. ) ;
#104 = LINE ( 'NONE', #132, #68 ) ;
#105 = CC_DESIGN_PERSON_AND_ORGANIZATION_ASSIGNMENT ( #170, #51, ( #223 ) ) ;
#106 = FACE_OUTER_BOUND ( 'NONE', #52, .T. ) ;
#107 = SHAPE_DEFINITION_REPRESENTATION ( #95, #63 ) ;
#108 = AXIS2_PLACEMENT_3D ( 'NONE', #99, #184, #65 ) ;
#109 = CARTESIAN_POINT ( 'NONE',  ( -17.49999999999999600, -17.50000000000000400, 1.000000000000000000 ) ) ;
#110 = ADVANCED_FACE ( 'NONE', ( #106 ), #84, .F. ) ;
#111 = APPROVAL_STATUS ( 'not_yet_approved' ) ;
#112 = ADVANCED_FACE ( 'NONE', ( #102 ), #214, .F. ) ;
#113 = LINE ( 'NONE', #219, #131 ) ;
#114 = DIRECTION ( 'NONE',  ( -1.000000000000000000, -0.0000000000000000000, -0.0000000000000000000 ) ) ;
#115 = LINE ( 'NONE', #128, #234 ) ;
#116 = DIRECTION ( 'NONE',  ( -0.0000000000000000000, -0.0000000000000000000, -1.000000000000000000 ) ) ;
#117 = CARTESIAN_POINT ( 'NONE',  ( 17.50000000000000000, 17.49999999999999600, 1.000000000000000000 ) ) ;
#118 = PERSON_AND_ORGANIZATION ( #230, #158 ) ;
#119 = LINE ( 'NONE', #154, #130 ) ;
#120 = FACE_OUTER_BOUND ( 'NONE', #195, .T. ) ;
#121 = AXIS2_PLACEMENT_3D ( 'NONE', #117, #146, #191 ) ;
#122 = LINE ( 'NONE', #182, #237 ) ;
#123 = VECTOR ( 'NONE', #98, 1000.000000000000000 ) ;
#124 = PERSON_AND_ORGANIZATION_ROLE ( 'creator' ) ;
#125 = VECTOR ( 'NONE', #28, 1000.000000000000000 ) ;
#126 = CARTESIAN_POINT ( 'NONE',  ( 17.50000000000000000, 17.49999999999999600, 1.000000000000000000 ) ) ;
#127 = EDGE_CURVE ( 'NONE', #226, #88, #144, .T. ) ;
#128 = CARTESIAN_POINT ( 'NONE',  ( 17.50000000000000400, -17.50000000000000400, 1.000000000000000000 ) ) ;
#129 = DIRECTION ( 'NONE',  ( 0.0000000000000000000, -0.0000000000000000000, 1.000000000000000000 ) ) ;
#130 = VECTOR ( 'NONE', #179, 1000.000000000000000 ) ;
#131 = VECTOR ( 'NONE', #9, 1000.000000000000000 ) ;
#132 = CARTESIAN_POINT ( 'NONE',  ( -17.49999999999999600, -17.50000000000000400, 0.0000000000000000000 ) ) ;
#133 = EDGE_CURVE ( 'NONE', #32, #226, #122, .T. ) ;
#134 = AXIS2_PLACEMENT_3D ( 'NONE', #56, #1, #202 ) ;
#135 = EDGE_CURVE ( 'NONE', #176, #26, #119, .T. ) ;
#136 = APPROVAL_DATE_TIME ( #58, #18 ) ;
#137 = APPROVAL_STATUS ( 'not_yet_approved' ) ;
#138 = DESIGN_CONTEXT ( 'detailed design', #153, 'design' ) ;
#139 = LINE ( 'NONE', #157, #145 ) ;
#140 = DATE_TIME_ROLE ( 'classification_date' ) ;
#141 = LINE ( 'NONE', #91, #232 ) ;
#142 = LINE ( 'NONE', #109, #123 ) ;
#143 = DIRECTION ( 'NONE',  ( 1.000000000000000000, 0.0000000000000000000, 0.0000000000000000000 ) ) ;
#144 = LINE ( 'NONE', #212, #101 ) ;
#145 = VECTOR ( 'NONE', #34, 1000.000000000000000 ) ;
#146 = DIRECTION ( 'NONE',  ( -1.000000000000000000, -9.912705577010325500E-017, 0.0000000000000000000 ) ) ;
#147 = ORIENTED_EDGE ( 'NONE', *, *, #211, .F. ) ;
#148 = LINE ( 'NONE', #86, #125 ) ;
#149 = VECTOR ( 'NONE', #189, 1000.000000000000000 ) ;
#150 = ORIENTED_EDGE ( 'NONE', *, *, #62, .T. ) ;
#151 = DIRECTION ( 'NONE',  ( 0.0000000000000000000, -0.0000000000000000000, -1.000000000000000000 ) ) ;
#152 = APPLICATION_CONTEXT ( 'configuration controlled 3d designs of mechanical parts and assemblies' ) ;
#153 = APPLICATION_CONTEXT ( 'configuration controlled 3d designs of mechanical parts and assemblies' ) ;
#154 = CARTESIAN_POINT ( 'NONE',  ( -17.50000000000000000, 17.49999999999999600, 1.000000000000000000 ) ) ;
#155 = CARTESIAN_POINT ( 'NONE',  ( -17.50000000000000000, 17.49999999999999600, 0.0000000000000000000 ) ) ;
#156 = APPLICATION_PROTOCOL_DEFINITION ( 'international standard', 'config_control_design', 1994, #152 ) ;
#157 = CARTESIAN_POINT ( 'NONE',  ( -17.50000000000000000, 17.49999999999999600, 1.000000000000000000 ) ) ;
#158 = ORGANIZATION ( 'UNSPECIFIED', 'UNSPECIFIED', '' ) ;
#159 = AXIS2_PLACEMENT_3D ( 'NONE', #16, #10, #129 ) ;
#160 = EDGE_LOOP ( 'NONE', ( #161, #67, #81, #229 ) ) ;
#161 = ORIENTED_EDGE ( 'NONE', *, *, #135, .T. ) ;
#162 = VERTEX_POINT ( 'NONE', #190 ) ;
#163 = MANIFOLD_SOLID_BREP ( 'Boss-Extrude1', #233 ) ;
#164 = CARTESIAN_POINT ( 'NONE',  ( -17.49999999999999600, -17.50000000000000400, 0.0000000000000000000 ) ) ;
#165 = CALENDAR_DATE ( 2017, 22, 5 ) ;
#166 = MECHANICAL_CONTEXT ( 'NONE', #152, 'mechanical' ) ;
#167 = ORIENTED_EDGE ( 'NONE', *, *, #127, .F. ) ;
#168 = CARTESIAN_POINT ( 'NONE',  ( 17.50000000000000400, -17.50000000000000400, 1.000000000000000000 ) ) ;
#169 = CARTESIAN_POINT ( 'NONE',  ( 17.50000000000000000, 17.49999999999999600, 1.000000000000000000 ) ) ;
#170 = PERSON_AND_ORGANIZATION ( #230, #158 ) ;
#171 = VERTEX_POINT ( 'NONE', #164 ) ;
#172 = DATE_AND_TIME ( #165, #187 ) ;
#173 =( NAMED_UNIT ( * ) SI_UNIT ( $, .STERADIAN. ) SOLID_ANGLE_UNIT ( ) );
#174 = CARTESIAN_POINT ( 'NONE',  ( 17.50000000000000000, 17.49999999999999600, 0.0000000000000000000 ) ) ;
#175 =( GEOMETRIC_REPRESENTATION_CONTEXT ( 3 ) GLOBAL_UNCERTAINTY_ASSIGNED_CONTEXT ( ( #215 ) ) GLOBAL_UNIT_ASSIGNED_CONTEXT ( ( #74, #73, #173 ) ) REPRESENTATION_CONTEXT ( 'NONE', 'WORKASPACE' ) );
#176 = VERTEX_POINT ( 'NONE', #209 ) ;
#177 = APPROVAL_PERSON_ORGANIZATION ( #196, #96, #235 ) ;
#178 = AXIS2_PLACEMENT_3D ( 'NONE', #231, #198, #207 ) ;
#179 = DIRECTION ( 'NONE',  ( 1.982541115402065100E-016, -1.000000000000000000, 0.0000000000000000000 ) ) ;
#180 = EDGE_CURVE ( 'NONE', #26, #171, #141, .T. ) ;
#181 = PERSON_AND_ORGANIZATION_ROLE ( 'design_supplier' ) ;
#182 = CARTESIAN_POINT ( 'NONE',  ( 17.50000000000000000, 17.49999999999999600, 0.0000000000000000000 ) ) ;
#183 = COORDINATED_UNIVERSAL_TIME_OFFSET ( 7, 0, .BEHIND. ) ;
#184 = DIRECTION ( 'NONE',  ( 0.0000000000000000000, 0.0000000000000000000, 1.000000000000000000 ) ) ;
#185 = APPROVAL_ROLE ( '' ) ;
#186 = ORIENTED_EDGE ( 'NONE', *, *, #46, .F. ) ;
#187 = LOCAL_TIME ( 13, 26, 0.0000000000000000000, #183 ) ;
#188 = ORIENTED_EDGE ( 'NONE', *, *, #180, .T. ) ;
#189 = DIRECTION ( 'NONE',  ( -9.912705577010325500E-017, 1.000000000000000000, -0.0000000000000000000 ) ) ;
#190 = CARTESIAN_POINT ( 'NONE',  ( 17.50000000000000000, 17.49999999999999600, 1.000000000000000000 ) ) ;
#191 = DIRECTION ( 'NONE',  ( 9.912705577010325500E-017, -1.000000000000000000, 0.0000000000000000000 ) ) ;
#192 = ORIENTED_EDGE ( 'NONE', *, *, #193, .T. ) ;
#193 = EDGE_CURVE ( 'NONE', #171, #32, #104, .T. ) ;
#194 = ORIENTED_EDGE ( 'NONE', *, *, #180, .F. ) ;
#195 = EDGE_LOOP ( 'NONE', ( #192, #85, #186, #188 ) ) ;
#196 = PERSON_AND_ORGANIZATION ( #230, #158 ) ;
#197 = DIRECTION ( 'NONE',  ( 1.000000000000000000, 0.0000000000000000000, 0.0000000000000000000 ) ) ;
#198 = DIRECTION ( 'NONE',  ( -0.0000000000000000000, 0.0000000000000000000, 1.000000000000000000 ) ) ;
#199 = ADVANCED_FACE ( 'NONE', ( #120 ), #35, .F. ) ;
#200 = PERSON_AND_ORGANIZATION ( #230, #158 ) ;
#201 = APPROVAL_ROLE ( '' ) ;
#202 = DIRECTION ( 'NONE',  ( -1.982541115402065100E-016, 1.000000000000000000, 0.0000000000000000000 ) ) ;
#203 = APPROVAL_STATUS ( 'not_yet_approved' ) ;
#204 = ORIENTED_EDGE ( 'NONE', *, *, #36, .F. ) ;
#205 = ORIENTED_EDGE ( 'NONE', *, *, #222, .T. ) ;
#206 = EDGE_LOOP ( 'NONE', ( #60, #208, #147, #93 ) ) ;
#207 = DIRECTION ( 'NONE',  ( 1.000000000000000000, 0.0000000000000000000, 0.0000000000000000000 ) ) ;
#208 = ORIENTED_EDGE ( 'NONE', *, *, #62, .F. ) ;
#209 = CARTESIAN_POINT ( 'NONE',  ( -17.50000000000000000, 17.49999999999999600, 1.000000000000000000 ) ) ;
#210 = ADVANCED_FACE ( 'NONE', ( #77 ), #100, .F. ) ;
#211 = EDGE_CURVE ( 'NONE', #162, #176, #139, .T. ) ;
#212 = CARTESIAN_POINT ( 'NONE',  ( -17.50000000000000000, 17.49999999999999600, 0.0000000000000000000 ) ) ;
#213 = DATE_TIME_ROLE ( 'creation_date' ) ;
#214 = PLANE ( 'NONE',  #134 ) ;
#215 = UNCERTAINTY_MEASURE_WITH_UNIT (LENGTH_MEASURE( 1.000000000000000100E-005 ), #74, 'distance_accuracy_value', 'NONE');
#216 = CALENDAR_DATE ( 2017, 22, 5 ) ;
#217 = COORDINATED_UNIVERSAL_TIME_OFFSET ( 7, 0, .BEHIND. ) ;
#218 = LINE ( 'NONE', #126, #149 ) ;
#219 = CARTESIAN_POINT ( 'NONE',  ( -17.50000000000000000, 17.49999999999999600, 0.0000000000000000000 ) ) ;
#220 = EDGE_CURVE ( 'NONE', #88, #171, #113, .T. ) ;
#221 = PERSON_AND_ORGANIZATION ( #230, #158 ) ;
#222 = EDGE_CURVE ( 'NONE', #49, #32, #115, .T. ) ;
#223 = PRODUCT ( 'step_35936', 'step_35936', '', ( #166 ) ) ;
#224 = PLANE ( 'NONE',  #225 ) ;
#225 = AXIS2_PLACEMENT_3D ( 'NONE', #79, #44, #197 ) ;
#226 = VERTEX_POINT ( 'NONE', #174 ) ;
#227 = EDGE_LOOP ( 'NONE', ( #82, #40, #204, #205 ) ) ;
#228 = ORIENTED_EDGE ( 'NONE', *, *, #133, .F. ) ;
#229 = ORIENTED_EDGE ( 'NONE', *, *, #211, .T. ) ;
#230 = PERSON ( 'UNSPECIFIED', 'UNSPECIFIED', 'UNSPECIFIED', ('UNSPECIFIED'), ('UNSPECIFIED'), ('UNSPECIFIED') ) ;
#231 = CARTESIAN_POINT ( 'NONE',  ( 0.0000000000000000000, 0.0000000000000000000, 0.0000000000000000000 ) ) ;
#232 = VECTOR ( 'NONE', #2, 1000.000000000000000 ) ;
#233 = CLOSED_SHELL ( 'NONE', ( #112, #199, #210, #17, #13, #110 ) ) ;
#234 = VECTOR ( 'NONE', #116, 1000.000000000000000 ) ;
#235 = APPROVAL_ROLE ( '' ) ;
#236 = DIRECTION ( 'NONE',  ( -9.912705577010325500E-017, 1.000000000000000000, -0.0000000000000000000 ) ) ;
#237 = VECTOR ( 'NONE', #236, 1000.000000000000000 ) ;
ENDSEC;
END-ISO-10303-21;
