ISO-10303-21;
HEADER;
FILE_DESCRIPTION (( 'STEP AP203' ),
    '1' );
FILE_NAME ('TTN162747-E0W.STEP',
    '2019-10-24T14:04:52',
    ( '' ),
    ( '' ),
    'SwSTEP 2.0',
    'SolidWorks 2018',
    '' );
FILE_SCHEMA (( 'CONFIG_CONTROL_DESIGN' ));
ENDSEC;

DATA;
#1 = CARTESIAN_POINT ( 'NONE',  ( 0.7033301664103697171, 1.055156377478284613, 1.050198824491280991 ) ) ;
#2 = EDGE_LOOP ( 'NONE', ( #233, #190, #113 ) ) ;
#3 = AXIS2_PLACEMENT_3D ( 'NONE', #145, #197, #36 ) ;
#4 = APPROVAL_ROLE ( '' ) ;
#5 = VECTOR ( 'NONE', #301, 1000.000000000000000 ) ;
#6 = VERTEX_POINT ( 'NONE', #219 ) ;
#7 = DATE_AND_TIME ( #263, #31 ) ;
#8 = EDGE_CURVE ( 'NONE', #260, #50, #282, .T. ) ;
#9 = CC_DESIGN_PERSON_AND_ORGANIZATION_ASSIGNMENT ( #94, #182, ( #133 ) ) ;
#10 = CIRCLE ( 'NONE', #15, 0.9500000000000002887 ) ;
#11 = CARTESIAN_POINT ( 'NONE',  ( 0.7033301664103697171, 1.055156377478284391, -1.088801175508718799 ) ) ;
#12 = ORIENTED_EDGE ( 'NONE', *, *, #262, .F. ) ;
#13 = ORIENTED_EDGE ( 'NONE', *, *, #284, .T. ) ;
#14 = DIRECTION ( 'NONE',  ( -0.0000000000000000000, 1.224646799147353454E-16, -1.000000000000000000 ) ) ;
#15 = AXIS2_PLACEMENT_3D ( 'NONE', #1, #228, #253 ) ;
#16 = DATE_AND_TIME ( #239, #245 ) ;
#17 = ADVANCED_BREP_SHAPE_REPRESENTATION ( 'TTN162747-E0W', ( #82, #107 ), #296 ) ;
#18 = CARTESIAN_POINT ( 'NONE',  ( 0.7033301664103697171, 1.055156377478284613, 1.100198824491281036 ) ) ;
#19 = ORIENTED_EDGE ( 'NONE', *, *, #262, .T. ) ;
#20 = CARTESIAN_POINT ( 'NONE',  ( 0.7033301664103697171, 1.055156377478284391, -1.088801175508718799 ) ) ;
#21 = DATE_AND_TIME ( #194, #63 ) ;
#22 = CARTESIAN_POINT ( 'NONE',  ( 0.7033301664103697171, 1.055156377478284613, 1.050198824491280991 ) ) ;
#23 = DATE_TIME_ROLE ( 'creation_date' ) ;
#24 = COORDINATED_UNIVERSAL_TIME_OFFSET ( 5, 0, .BEHIND. ) ;
#25 = AXIS2_PLACEMENT_3D ( 'NONE', #106, #266, #143 ) ;
#26 = APPROVAL_ROLE ( '' ) ;
#27 = LINE ( 'NONE', #42, #298 ) ;
#28 = ADVANCED_FACE ( 'NONE', ( #238 ), #289, .T. ) ;
#29 = ORIENTED_EDGE ( 'NONE', *, *, #188, .F. ) ;
#30 = CC_DESIGN_APPROVAL ( #73, ( #65 ) ) ;
#31 = LOCAL_TIME ( 10, 4, 52.00000000000000000, #24 ) ;
#32 = ORIENTED_EDGE ( 'NONE', *, *, #8, .T. ) ;
#33 = LOCAL_TIME ( 10, 4, 52.00000000000000000, #174 ) ;
#34 = FACE_OUTER_BOUND ( 'NONE', #125, .T. ) ;
#35 = CC_DESIGN_APPROVAL ( #156, ( #146 ) ) ;
#36 = DIRECTION ( 'NONE',  ( 0.0000000000000000000, 1.000000000000000000, 2.282530889443167515E-16 ) ) ;
#37 = VERTEX_POINT ( 'NONE', #87 ) ;
#38 = DIRECTION ( 'NONE',  ( 0.0000000000000000000, 1.000000000000000000, 2.168404344971008868E-16 ) ) ;
#39 = AXIS2_PLACEMENT_3D ( 'NONE', #132, #14, #64 ) ;
#40 = CARTESIAN_POINT ( 'NONE',  ( 0.7033301664103698281, 0.05515637747828452259, 1.050198824491280769 ) ) ;
#41 = DIRECTION ( 'NONE',  ( 0.0000000000000000000, -1.224646799147353454E-16, 1.000000000000000000 ) ) ;
#42 = CARTESIAN_POINT ( 'NONE',  ( 0.7033301664103697171, 0.1051563774782844352, 1.050198824491280769 ) ) ;
#43 = CARTESIAN_POINT ( 'NONE',  ( 0.7033301664103697171, 1.055156377478284613, 1.852991096692009565 ) ) ;
#44 = CARTESIAN_POINT ( 'NONE',  ( 0.7033301664103697171, 2.055156377478284391, 1.852991096692009787 ) ) ;
#45 = DIRECTION ( 'NONE',  ( 0.0000000000000000000, -1.000000000000000000, -2.282530889443167022E-16 ) ) ;
#46 = DIRECTION ( 'NONE',  ( 0.0000000000000000000, 1.000000000000000000, 2.168404344971008868E-16 ) ) ;
#47 = APPROVAL_DATE_TIME ( #21, #73 ) ;
#48 = DIRECTION ( 'NONE',  ( 0.0000000000000000000, 1.000000000000000000, 2.282530889443166529E-16 ) ) ;
#49 = CARTESIAN_POINT ( 'NONE',  ( 0.0000000000000000000, 0.0000000000000000000, 0.0000000000000000000 ) ) ;
#50 = VERTEX_POINT ( 'NONE', #131 ) ;
#51 = CALENDAR_DATE ( 2019, 24, 10 ) ;
#52 = AXIS2_PLACEMENT_3D ( 'NONE', #226, #249, #150 ) ;
#53 = ORIENTED_EDGE ( 'NONE', *, *, #80, .T. ) ;
#54 = CC_DESIGN_DATE_AND_TIME_ASSIGNMENT ( #126, #229, ( #65 ) ) ;
#55 = AXIS2_PLACEMENT_3D ( 'NONE', #293, #90, #275 ) ;
#56 = CIRCLE ( 'NONE', #154, 1.000000000000000000 ) ;
#57 = VERTEX_POINT ( 'NONE', #221 ) ;
#58 = DIRECTION ( 'NONE',  ( -1.000000000000000000, 0.0000000000000000000, 0.0000000000000000000 ) ) ;
#59 = SPHERICAL_SURFACE ( 'NONE', #124, 3.139000000000000234 ) ;
#60 = DIRECTION ( 'NONE',  ( -0.0000000000000000000, 1.224646799147353454E-16, -1.000000000000000000 ) ) ;
#61 = EDGE_LOOP ( 'NONE', ( #53, #252, #244, #184 ) ) ;
#62 = DIRECTION ( 'NONE',  ( 0.0000000000000000000, 1.000000000000000000, 2.168404344971008868E-16 ) ) ;
#63 = LOCAL_TIME ( 10, 4, 52.00000000000000000, #286 ) ;
#64 = DIRECTION ( 'NONE',  ( 0.0000000000000000000, 1.000000000000000000, 2.168404344971008868E-16 ) ) ;
#65 = SECURITY_CLASSIFICATION ( '', '', #187 ) ;
#66 = CARTESIAN_POINT ( 'NONE',  ( 0.7033301664103697171, 2.005156377478284568, 1.902991096692010276 ) ) ;
#67 = FACE_OUTER_BOUND ( 'NONE', #215, .T. ) ;
#68 = DIRECTION ( 'NONE',  ( -0.0000000000000000000, 1.224646799147353454E-16, -1.000000000000000000 ) ) ;
#69 = EDGE_LOOP ( 'NONE', ( #32, #207, #268, #192 ) ) ;
#70 = PERSON_AND_ORGANIZATION_ROLE ( 'design_supplier' ) ;
#71 = AXIS2_PLACEMENT_3D ( 'NONE', #283, #280, #48 ) ;
#72 = DIRECTION ( 'NONE',  ( 0.0000000000000000000, -1.224646799147353454E-16, 1.000000000000000000 ) ) ;
#73 = APPROVAL ( #254, 'UNSPECIFIED' ) ;
#74 = APPLICATION_PROTOCOL_DEFINITION ( 'international standard', 'config_control_design', 1994, #135 ) ;
#75 = ADVANCED_FACE ( 'NONE', ( #288 ), #59, .T. ) ;
#76 = SPHERICAL_SURFACE ( 'NONE', #137, 3.139000000000000234 ) ;
#77 = EDGE_CURVE ( 'NONE', #57, #260, #224, .T. ) ;
#78 = ADVANCED_FACE ( 'NONE', ( #89 ), #117, .T. ) ;
#79 = CALENDAR_DATE ( 2019, 24, 10 ) ;
#80 = EDGE_CURVE ( 'NONE', #276, #294, #56, .T. ) ;
#81 = CONICAL_SURFACE ( 'NONE', #134, 0.9500000000000000666, 0.7853981633974482790 ) ;
#82 = MANIFOLD_SOLID_BREP ( 'TTN162699-1-solid1', #95 ) ;
#83 = EDGE_LOOP ( 'NONE', ( #256, #234, #159, #203 ) ) ;
#84 = DIRECTION ( 'NONE',  ( -0.0000000000000000000, 1.224646799147353454E-16, -1.000000000000000000 ) ) ;
#85 = COORDINATED_UNIVERSAL_TIME_OFFSET ( 5, 0, .BEHIND. ) ;
#86 = CARTESIAN_POINT ( 'NONE',  ( 0.7033301664103697171, 1.055156377478284613, 1.852991096692009565 ) ) ;
#87 = CARTESIAN_POINT ( 'NONE',  ( 0.7033301664103697171, 2.055156377478284391, 1.100198824491281258 ) ) ;
#88 = CARTESIAN_POINT ( 'NONE',  ( 0.7033301664103697171, 1.055156377478284613, 1.050198824491280991 ) ) ;
#89 = FACE_OUTER_BOUND ( 'NONE', #69, .T. ) ;
#90 = DIRECTION ( 'NONE',  ( -0.0000000000000000000, 1.224646799147353454E-16, -1.000000000000000000 ) ) ;
#91 = ORIENTED_EDGE ( 'NONE', *, *, #149, .T. ) ;
#92 = AXIS2_PLACEMENT_3D ( 'NONE', #20, #115, #277 ) ;
#93 = CARTESIAN_POINT ( 'NONE',  ( 0.7033301664103697171, 1.055156377478284613, 1.100198824491281036 ) ) ;
#94 = PERSON_AND_ORGANIZATION ( #103, #205 ) ;
#95 = CLOSED_SHELL ( 'NONE', ( #214, #75, #78, #185, #99, #155, #28, #236, #101 ) ) ;
#96 =( NAMED_UNIT ( * ) PLANE_ANGLE_UNIT ( ) SI_UNIT ( $, .RADIAN. ) );
#97 = APPROVAL_PERSON_ORGANIZATION ( #258, #232, #26 ) ;
#98 = EDGE_CURVE ( 'NONE', #294, #6, #243, .T. ) ;
#99 = ADVANCED_FACE ( 'NONE', ( #112 ), #175, .T. ) ;
#100 = FACE_OUTER_BOUND ( 'NONE', #178, .T. ) ;
#101 = ADVANCED_FACE ( 'NONE', ( #158 ), #81, .T. ) ;
#102 = CC_DESIGN_SECURITY_CLASSIFICATION ( #65, ( #216 ) ) ;
#103 = PERSON ( 'UNSPECIFIED', 'UNSPECIFIED', 'UNSPECIFIED', ('UNSPECIFIED'), ('UNSPECIFIED'), ('UNSPECIFIED') ) ;
#104 = VERTEX_POINT ( 'NONE', #116 ) ;
#105 = LINE ( 'NONE', #257, #201 ) ;
#106 = CARTESIAN_POINT ( 'NONE',  ( 0.7033301664103697171, 1.055156377478284613, 1.050198824491280991 ) ) ;
#107 = AXIS2_PLACEMENT_3D ( 'NONE', #49, #231, #181 ) ;
#108 = DIRECTION ( 'NONE',  ( -0.0000000000000000000, 1.224646799147353454E-16, -1.000000000000000000 ) ) ;
#109 = CARTESIAN_POINT ( 'NONE',  ( 0.7033301664103697171, 1.055156377478284613, 1.852991096692009565 ) ) ;
#110 = ORIENTED_EDGE ( 'NONE', *, *, #247, .F. ) ;
#111 = DIRECTION ( 'NONE',  ( 0.0000000000000000000, 1.000000000000000000, 1.381589260892646422E-16 ) ) ;
#112 = FACE_OUTER_BOUND ( 'NONE', #264, .T. ) ;
#113 = ORIENTED_EDGE ( 'NONE', *, *, #8, .F. ) ;
#114 = AXIS2_PLACEMENT_3D ( 'NONE', #291, #58, #147 ) ;
#115 = DIRECTION ( 'NONE',  ( 1.000000000000000000, 1.224646799147353207E-16, 1.499759782661857882E-32 ) ) ;
#116 = CARTESIAN_POINT ( 'NONE',  ( 0.7033301664103698281, 2.005156377478285012, 1.050198824491281213 ) ) ;
#117 = CONICAL_SURFACE ( 'NONE', #179, 1.000000000000000000, 0.7853981633974461696 ) ;
#118 = CARTESIAN_POINT ( 'NONE',  ( 0.7033301664103698281, 0.05515637747828452259, 1.852991096692009343 ) ) ;
#119 = COORDINATED_UNIVERSAL_TIME_OFFSET ( 5, 0, .BEHIND. ) ;
#120 = APPROVAL_ROLE ( '' ) ;
#121 = MECHANICAL_CONTEXT ( 'NONE', #210, 'mechanical' ) ;
#122 = ORIENTED_EDGE ( 'NONE', *, *, #272, .F. ) ;
#123 = PERSON_AND_ORGANIZATION_ROLE ( 'creator' ) ;
#124 = AXIS2_PLACEMENT_3D ( 'NONE', #11, #269, #111 ) ;
#125 = EDGE_LOOP ( 'NONE', ( #127, #241, #213, #198 ) ) ;
#126 = DATE_AND_TIME ( #51, #167 ) ;
#127 = ORIENTED_EDGE ( 'NONE', *, *, #98, .F. ) ;
#128 = CYLINDRICAL_SURFACE ( 'NONE', #235, 1.000000000000000000 ) ;
#129 = ORIENTED_EDGE ( 'NONE', *, *, #162, .F. ) ;
#130 = DIRECTION ( 'NONE',  ( 0.0000000000000000000, 1.000000000000000000, 2.168404344971008868E-16 ) ) ;
#131 = CARTESIAN_POINT ( 'NONE',  ( 0.7033301664103698281, 0.1051563774782847682, 1.902991096692009831 ) ) ;
#132 = CARTESIAN_POINT ( 'NONE',  ( 0.7033301664103697171, 1.055156377478284613, 1.050198824491280991 ) ) ;
#133 = PRODUCT ( 'TTN162747-E0W', 'TTN162747-E0W', '', ( #121 ) ) ;
#134 = AXIS2_PLACEMENT_3D ( 'NONE', #22, #41, #45 ) ;
#135 = APPLICATION_CONTEXT ( 'configuration controlled 3d designs of mechanical parts and assemblies' ) ;
#136 = CARTESIAN_POINT ( 'NONE',  ( 0.7033301664103697171, 2.055156377478284391, 1.852991096692009787 ) ) ;
#137 = AXIS2_PLACEMENT_3D ( 'NONE', #273, #199, #225 ) ;
#138 = CARTESIAN_POINT ( 'NONE',  ( 0.7033301664103698281, 0.05515637747828452259, 1.852991096692009343 ) ) ;
#139 = APPROVAL_PERSON_ORGANIZATION ( #230, #73, #120 ) ;
#140 = APPROVAL_PERSON_ORGANIZATION ( #267, #156, #4 ) ;
#141 = CIRCLE ( 'NONE', #71, 0.9500000000000002887 ) ;
#142 = ORIENTED_EDGE ( 'NONE', *, *, #272, .T. ) ;
#143 = DIRECTION ( 'NONE',  ( 0.0000000000000000000, 1.000000000000000000, 1.224646799147353454E-16 ) ) ;
#144 = FACE_OUTER_BOUND ( 'NONE', #61, .T. ) ;
#145 = CARTESIAN_POINT ( 'NONE',  ( 0.7033301664103697171, 1.055156377478284613, 1.902991096692010053 ) ) ;
#146 = PRODUCT_DEFINITION ( 'UNKNOWN', '', #216, #297 ) ;
#147 = DIRECTION ( 'NONE',  ( 0.0000000000000000000, 0.0000000000000000000, 1.000000000000000000 ) ) ;
#148 = PERSON_AND_ORGANIZATION ( #103, #205 ) ;
#149 = EDGE_CURVE ( 'NONE', #196, #6, #27, .T. ) ;
#150 = DIRECTION ( 'NONE',  ( 0.0000000000000000000, -1.000000000000000000, -2.282530889443167022E-16 ) ) ;
#151 = VECTOR ( 'NONE', #271, 1000.000000000000000 ) ;
#152 = UNCERTAINTY_MEASURE_WITH_UNIT (LENGTH_MEASURE( 1.000000000000000082E-05 ), #163, 'distance_accuracy_value', 'NONE');
#153 = DIRECTION ( 'NONE',  ( 0.0000000000000000000, 1.000000000000000000, 2.168404344971008868E-16 ) ) ;
#154 = AXIS2_PLACEMENT_3D ( 'NONE', #86, #223, #242 ) ;
#155 = ADVANCED_FACE ( 'NONE', ( #34 ), #165, .T. ) ;
#156 = APPROVAL ( #281, 'UNSPECIFIED' ) ;
#157 = DIRECTION ( 'NONE',  ( 0.0000000000000000000, 1.000000000000000000, 2.168404344971008868E-16 ) ) ;
#158 = FACE_OUTER_BOUND ( 'NONE', #217, .T. ) ;
#159 = ORIENTED_EDGE ( 'NONE', *, *, #171, .T. ) ;
#160 = DIRECTION ( 'NONE',  ( 8.659560562354932858E-17, 0.7071067811865473507, 0.7071067811865477948 ) ) ;
#161 = SHAPE_DEFINITION_REPRESENTATION ( #191, #17 ) ;
#162 = EDGE_CURVE ( 'NONE', #37, #6, #220, .T. ) ;
#163 =( LENGTH_UNIT ( ) NAMED_UNIT ( * ) SI_UNIT ( .MILLI., .METRE. ) );
#164 = APPROVAL_STATUS ( 'not_yet_approved' ) ;
#165 = CYLINDRICAL_SURFACE ( 'NONE', #39, 1.000000000000000000 ) ;
#166 = VECTOR ( 'NONE', #160, 999.9999999999998863 ) ;
#167 = LOCAL_TIME ( 10, 4, 52.00000000000000000, #119 ) ;
#168 = CC_DESIGN_PERSON_AND_ORGANIZATION_ASSIGNMENT ( #148, #123, ( #146 ) ) ;
#169 = CIRCLE ( 'NONE', #55, 0.9499999999999998446 ) ;
#170 = ORIENTED_EDGE ( 'NONE', *, *, #284, .F. ) ;
#171 = EDGE_CURVE ( 'NONE', #260, #276, #285, .T. ) ;
#172 = PRODUCT_RELATED_PRODUCT_CATEGORY ( 'detail', '', ( #133 ) ) ;
#173 = CIRCLE ( 'NONE', #250, 1.000000000000000000 ) ;
#174 = COORDINATED_UNIVERSAL_TIME_OFFSET ( 5, 0, .BEHIND. ) ;
#175 = PLANE ( 'NONE',  #25 ) ;
#176 = ORIENTED_EDGE ( 'NONE', *, *, #193, .F. ) ;
#177 = CARTESIAN_POINT ( 'NONE',  ( 0.7033301664103697171, 0.1051563774782844352, 1.050198824491280769 ) ) ;
#178 = EDGE_LOOP ( 'NONE', ( #176, #290, #29 ) ) ;
#179 = AXIS2_PLACEMENT_3D ( 'NONE', #109, #84, #130 ) ;
#180 = PERSON_AND_ORGANIZATION ( #103, #205 ) ;
#181 = DIRECTION ( 'NONE',  ( 1.000000000000000000, 0.0000000000000000000, 0.0000000000000000000 ) ) ;
#182 = PERSON_AND_ORGANIZATION_ROLE ( 'design_owner' ) ;
#183 = CC_DESIGN_DATE_AND_TIME_ASSIGNMENT ( #16, #23, ( #146 ) ) ;
#184 = ORIENTED_EDGE ( 'NONE', *, *, #240, .F. ) ;
#185 = ADVANCED_FACE ( 'NONE', ( #144 ), #128, .T. ) ;
#186 = AXIS2_PLACEMENT_3D ( 'NONE', #18, #295, #157 ) ;
#187 = SECURITY_CLASSIFICATION_LEVEL ( 'unclassified' ) ;
#188 = EDGE_CURVE ( 'NONE', #50, #260, #169, .T. ) ;
#189 = PERSON_AND_ORGANIZATION_ROLE ( 'classification_officer' ) ;
#190 = ORIENTED_EDGE ( 'NONE', *, *, #193, .T. ) ;
#191 = PRODUCT_DEFINITION_SHAPE ( 'NONE', 'NONE',  #146 ) ;
#192 = ORIENTED_EDGE ( 'NONE', *, *, #171, .F. ) ;
#193 = EDGE_CURVE ( 'NONE', #57, #50, #227, .T. ) ;
#194 = CALENDAR_DATE ( 2019, 24, 10 ) ;
#195 = LINE ( 'NONE', #138, #5 ) ;
#196 = VERTEX_POINT ( 'NONE', #177 ) ;
#197 = DIRECTION ( 'NONE',  ( -0.0000000000000000000, 1.224646799147353454E-16, -1.000000000000000000 ) ) ;
#198 = ORIENTED_EDGE ( 'NONE', *, *, #162, .T. ) ;
#199 = DIRECTION ( 'NONE',  ( 1.000000000000000000, 0.0000000000000000000, -0.0000000000000000000 ) ) ;
#200 = AXIS2_PLACEMENT_3D ( 'NONE', #246, #108, #38 ) ;
#201 = VECTOR ( 'NONE', #212, 1000.000000000000000 ) ;
#202 = DIRECTION ( 'NONE',  ( -0.0000000000000000000, 1.224646799147353454E-16, -1.000000000000000000 ) ) ;
#203 = ORIENTED_EDGE ( 'NONE', *, *, #218, .F. ) ;
#204 = DATE_AND_TIME ( #79, #33 ) ;
#205 = ORGANIZATION ( 'UNSPECIFIED', 'UNSPECIFIED', '' ) ;
#206 = PERSON_AND_ORGANIZATION_ROLE ( 'creator' ) ;
#207 = ORIENTED_EDGE ( 'NONE', *, *, #287, .T. ) ;
#208 = PERSON_AND_ORGANIZATION ( #103, #205 ) ;
#209 = APPLICATION_PROTOCOL_DEFINITION ( 'international standard', 'config_control_design', 1994, #210 ) ;
#210 = APPLICATION_CONTEXT ( 'configuration controlled 3d designs of mechanical parts and assemblies' ) ;
#211 = CIRCLE ( 'NONE', #265, 1.000000000000000000 ) ;
#212 = DIRECTION ( 'NONE',  ( -0.0000000000000000000, 1.224646799147353454E-16, -1.000000000000000000 ) ) ;
#213 = ORIENTED_EDGE ( 'NONE', *, *, #240, .T. ) ;
#214 = ADVANCED_FACE ( 'NONE', ( #67 ), #259, .T. ) ;
#215 = EDGE_LOOP ( 'NONE', ( #170, #142, #110, #278 ) ) ;
#216 = PRODUCT_DEFINITION_FORMATION_WITH_SPECIFIED_SOURCE ( 'ANY', '', #133, .NOT_KNOWN. ) ;
#217 = EDGE_LOOP ( 'NONE', ( #122, #12, #91, #129 ) ) ;
#218 = EDGE_CURVE ( 'NONE', #294, #276, #173, .T. ) ;
#219 = CARTESIAN_POINT ( 'NONE',  ( 0.7033301664103698281, 0.05515637747828452259, 1.100198824491280813 ) ) ;
#220 = CIRCLE ( 'NONE', #186, 1.000000000000000000 ) ;
#221 = CARTESIAN_POINT ( 'NONE',  ( 0.7033301664103697171, 1.055156377478284169, 2.050198824491281435 ) ) ;
#222 = PERSON_AND_ORGANIZATION ( #103, #205 ) ;
#223 = DIRECTION ( 'NONE',  ( -0.0000000000000000000, 1.224646799147353454E-16, -1.000000000000000000 ) ) ;
#224 = CIRCLE ( 'NONE', #114, 3.139000000000000234 ) ;
#225 = DIRECTION ( 'NONE',  ( 0.0000000000000000000, 1.000000000000000000, 1.381589260892646422E-16 ) ) ;
#226 = CARTESIAN_POINT ( 'NONE',  ( 0.7033301664103697171, 1.055156377478284613, 1.050198824491280991 ) ) ;
#227 = CIRCLE ( 'NONE', #92, 3.139000000000000234 ) ;
#228 = DIRECTION ( 'NONE',  ( -0.0000000000000000000, 1.224646799147353454E-16, -1.000000000000000000 ) ) ;
#229 = DATE_TIME_ROLE ( 'classification_date' ) ;
#230 = PERSON_AND_ORGANIZATION ( #103, #205 ) ;
#231 = DIRECTION ( 'NONE',  ( 0.0000000000000000000, 0.0000000000000000000, 1.000000000000000000 ) ) ;
#232 = APPROVAL ( #164, 'UNSPECIFIED' ) ;
#233 = ORIENTED_EDGE ( 'NONE', *, *, #77, .F. ) ;
#234 = ORIENTED_EDGE ( 'NONE', *, *, #188, .T. ) ;
#235 = AXIS2_PLACEMENT_3D ( 'NONE', #88, #68, #62 ) ;
#236 = ADVANCED_FACE ( 'NONE', ( #100 ), #76, .T. ) ;
#237 = CC_DESIGN_PERSON_AND_ORGANIZATION_ASSIGNMENT ( #222, #189, ( #65 ) ) ;
#238 = FACE_OUTER_BOUND ( 'NONE', #83, .T. ) ;
#239 = CALENDAR_DATE ( 2019, 24, 10 ) ;
#240 = EDGE_CURVE ( 'NONE', #276, #37, #105, .T. ) ;
#241 = ORIENTED_EDGE ( 'NONE', *, *, #218, .T. ) ;
#242 = DIRECTION ( 'NONE',  ( 0.0000000000000000000, 1.000000000000000000, 2.168404344971008868E-16 ) ) ;
#243 = LINE ( 'NONE', #40, #251 ) ;
#244 = ORIENTED_EDGE ( 'NONE', *, *, #247, .T. ) ;
#245 = LOCAL_TIME ( 10, 4, 52.00000000000000000, #85 ) ;
#246 = CARTESIAN_POINT ( 'NONE',  ( 0.7033301664103697171, 1.055156377478284613, 1.852991096692009565 ) ) ;
#247 = EDGE_CURVE ( 'NONE', #6, #37, #211, .T. ) ;
#248 = CC_DESIGN_APPROVAL ( #232, ( #216 ) ) ;
#249 = DIRECTION ( 'NONE',  ( 0.0000000000000000000, -1.224646799147353454E-16, 1.000000000000000000 ) ) ;
#250 = AXIS2_PLACEMENT_3D ( 'NONE', #43, #202, #153 ) ;
#251 = VECTOR ( 'NONE', #60, 1000.000000000000000 ) ;
#252 = ORIENTED_EDGE ( 'NONE', *, *, #98, .T. ) ;
#253 = DIRECTION ( 'NONE',  ( 0.0000000000000000000, 1.000000000000000000, 2.282530889443166529E-16 ) ) ;
#254 = APPROVAL_STATUS ( 'not_yet_approved' ) ;
#255 =( NAMED_UNIT ( * ) SI_UNIT ( $, .STERADIAN. ) SOLID_ANGLE_UNIT ( ) );
#256 = ORIENTED_EDGE ( 'NONE', *, *, #287, .F. ) ;
#257 = CARTESIAN_POINT ( 'NONE',  ( 0.7033301664103697171, 2.055156377478284391, 1.050198824491281213 ) ) ;
#258 = PERSON_AND_ORGANIZATION ( #103, #205 ) ;
#259 = CONICAL_SURFACE ( 'NONE', #52, 0.9500000000000000666, 0.7853981633974482790 ) ;
#260 = VERTEX_POINT ( 'NONE', #66 ) ;
#261 = APPROVAL_DATE_TIME ( #7, #156 ) ;
#262 = EDGE_CURVE ( 'NONE', #196, #104, #10, .T. ) ;
#263 = CALENDAR_DATE ( 2019, 24, 10 ) ;
#264 = EDGE_LOOP ( 'NONE', ( #19, #13 ) ) ;
#265 = AXIS2_PLACEMENT_3D ( 'NONE', #93, #72, #46 ) ;
#266 = DIRECTION ( 'NONE',  ( -0.0000000000000000000, 1.224646799147353454E-16, -1.000000000000000000 ) ) ;
#267 = PERSON_AND_ORGANIZATION ( #103, #205 ) ;
#268 = ORIENTED_EDGE ( 'NONE', *, *, #80, .F. ) ;
#269 = DIRECTION ( 'NONE',  ( 1.000000000000000000, 0.0000000000000000000, -0.0000000000000000000 ) ) ;
#270 = APPROVAL_DATE_TIME ( #204, #232 ) ;
#271 = DIRECTION ( 'NONE',  ( 0.0000000000000000000, 0.7071067811865462405, -0.7071067811865489050 ) ) ;
#272 = EDGE_CURVE ( 'NONE', #104, #37, #274, .T. ) ;
#273 = CARTESIAN_POINT ( 'NONE',  ( 0.7033301664103697171, 1.055156377478284391, -1.088801175508718799 ) ) ;
#274 = LINE ( 'NONE', #279, #166 ) ;
#275 = DIRECTION ( 'NONE',  ( 0.0000000000000000000, 1.000000000000000000, 2.282530889443167515E-16 ) ) ;
#276 = VERTEX_POINT ( 'NONE', #136 ) ;
#277 = DIRECTION ( 'NONE',  ( -1.381589260892646422E-16, 1.000000000000000000, 0.0000000000000000000 ) ) ;
#278 = ORIENTED_EDGE ( 'NONE', *, *, #149, .F. ) ;
#279 = CARTESIAN_POINT ( 'NONE',  ( 0.7033301664103698281, 2.005156377478285012, 1.050198824491281213 ) ) ;
#280 = DIRECTION ( 'NONE',  ( -0.0000000000000000000, 1.224646799147353454E-16, -1.000000000000000000 ) ) ;
#281 = APPROVAL_STATUS ( 'not_yet_approved' ) ;
#282 = CIRCLE ( 'NONE', #3, 0.9499999999999998446 ) ;
#283 = CARTESIAN_POINT ( 'NONE',  ( 0.7033301664103697171, 1.055156377478284613, 1.050198824491280991 ) ) ;
#284 = EDGE_CURVE ( 'NONE', #104, #196, #141, .T. ) ;
#285 = LINE ( 'NONE', #44, #151 ) ;
#286 = COORDINATED_UNIVERSAL_TIME_OFFSET ( 5, 0, .BEHIND. ) ;
#287 = EDGE_CURVE ( 'NONE', #50, #294, #195, .T. ) ;
#288 = FACE_OUTER_BOUND ( 'NONE', #2, .T. ) ;
#289 = CONICAL_SURFACE ( 'NONE', #200, 1.000000000000000000, 0.7853981633974461696 ) ;
#290 = ORIENTED_EDGE ( 'NONE', *, *, #77, .T. ) ;
#291 = CARTESIAN_POINT ( 'NONE',  ( 0.7033301664103697171, 1.055156377478284391, -1.088801175508718799 ) ) ;
#292 = CC_DESIGN_PERSON_AND_ORGANIZATION_ASSIGNMENT ( #180, #70, ( #216 ) ) ;
#293 = CARTESIAN_POINT ( 'NONE',  ( 0.7033301664103697171, 1.055156377478284613, 1.902991096692010053 ) ) ;
#294 = VERTEX_POINT ( 'NONE', #118 ) ;
#295 = DIRECTION ( 'NONE',  ( 0.0000000000000000000, -1.224646799147353454E-16, 1.000000000000000000 ) ) ;
#296 =( GEOMETRIC_REPRESENTATION_CONTEXT ( 3 ) GLOBAL_UNCERTAINTY_ASSIGNED_CONTEXT ( ( #152 ) ) GLOBAL_UNIT_ASSIGNED_CONTEXT ( ( #163, #96, #255 ) ) REPRESENTATION_CONTEXT ( 'NONE', 'WORKASPACE' ) );
#297 = DESIGN_CONTEXT ( 'detailed design', #135, 'design' ) ;
#298 = VECTOR ( 'NONE', #300, 1000.000000000000000 ) ;
#299 = CC_DESIGN_PERSON_AND_ORGANIZATION_ASSIGNMENT ( #208, #206, ( #216 ) ) ;
#300 = DIRECTION ( 'NONE',  ( 0.0000000000000000000, -0.7071067811865475727, 0.7071067811865474617 ) ) ;
#301 = DIRECTION ( 'NONE',  ( 8.659560562354914369E-17, -0.7071067811865459074, -0.7071067811865491270 ) ) ;
ENDSEC;
END-ISO-10303-21;
