ISO-10303-21;
HEADER;
FILE_DESCRIPTION (( 'STEP AP203' ),
    '1' );
FILE_NAME ('34429_Default.step',
    '2017-06-22T14:40:57',
    ( '' ),
    ( '' ),
    'SwSTEP 2.0',
    'SolidWorks 2016',
    '' );
FILE_SCHEMA (( 'CONFIG_CONTROL_DESIGN' ));
ENDSEC;

DATA;
#1 = CARTESIAN_POINT ( 'NONE',  ( 0.0000000000000000000, 0.0000000000000000000, 0.0000000000000000000 ) ) ;
#2 = SECURITY_CLASSIFICATION_LEVEL ( 'unclassified' ) ;
#3 = APPROVAL_STATUS ( 'not_yet_approved' ) ;
#4 = EDGE_CURVE ( 'NONE', #59, #157, #55, .T. ) ;
#5 = MECHANICAL_CONTEXT ( 'NONE', #85, 'mechanical' ) ;
#6 = UNCERTAINTY_MEASURE_WITH_UNIT (LENGTH_MEASURE( 1.000000000000000100E-005 ), #105, 'distance_accuracy_value', 'NONE');
#7 =( GEOMETRIC_REPRESENTATION_CONTEXT ( 3 ) GLOBAL_UNCERTAINTY_ASSIGNED_CONTEXT ( ( #6 ) ) GLOBAL_UNIT_ASSIGNED_CONTEXT ( ( #105, #27, #39 ) ) REPRESENTATION_CONTEXT ( 'NONE', 'WORKASPACE' ) );
#8 = PLANE ( 'NONE',  #102 ) ;
#9 = LOCAL_TIME ( 10, 40, 57.00000000000000000, #128 ) ;
#10 = CLOSED_SHELL ( 'NONE', ( #12, #24, #150, #53 ) ) ;
#11 = DIRECTION ( 'NONE',  ( -0.0000000000000000000, -0.0000000000000000000, -1.000000000000000000 ) ) ;
#12 = ADVANCED_FACE ( 'NONE', ( #23 ), #115, .T. ) ;
#13 = EDGE_CURVE ( 'NONE', #137, #99, #124, .T. ) ;
#14 = APPROVAL_ROLE ( '' ) ;
#15 = CARTESIAN_POINT ( 'NONE',  ( -25.00000000000000000, 0.0000000000000000000, 0.0000000000000000000 ) ) ;
#16 = CARTESIAN_POINT ( 'NONE',  ( 25.00000000000000000, 3.061616997868383000E-015, 3.000000000000000000 ) ) ;
#17 = CARTESIAN_POINT ( 'NONE',  ( 0.0000000000000000000, 0.0000000000000000000, 0.0000000000000000000 ) ) ;
#18 = CARTESIAN_POINT ( 'NONE',  ( 25.00000000000000000, 3.061616997868383000E-015, 3.000000000000000000 ) ) ;
#19 = VECTOR ( 'NONE', #60, 1000.000000000000000 ) ;
#20 = PRODUCT_DEFINITION ( 'UNKNOWN', '', #152, #65 ) ;
#21 = ORIENTED_EDGE ( 'NONE', *, *, #127, .F. ) ;
#22 = DIRECTION ( 'NONE',  ( -0.0000000000000000000, -0.0000000000000000000, -1.000000000000000000 ) ) ;
#23 = FACE_OUTER_BOUND ( 'NONE', #168, .T. ) ;
#24 = ADVANCED_FACE ( 'NONE', ( #96 ), #167, .T. ) ;
#25 = APPROVAL_STATUS ( 'not_yet_approved' ) ;
#26 = ORIENTED_EDGE ( 'NONE', *, *, #162, .F. ) ;
#27 =( NAMED_UNIT ( * ) PLANE_ANGLE_UNIT ( ) SI_UNIT ( $, .RADIAN. ) );
#28 = ORIENTED_EDGE ( 'NONE', *, *, #36, .T. ) ;
#29 = AXIS2_PLACEMENT_3D ( 'NONE', #172, #91, #45 ) ;
#30 = DIRECTION ( 'NONE',  ( 0.0000000000000000000, 0.0000000000000000000, 1.000000000000000000 ) ) ;
#31 = AXIS2_PLACEMENT_3D ( 'NONE', #40, #169, #138 ) ;
#32 = CALENDAR_DATE ( 2017, 22, 6 ) ;
#33 = SECURITY_CLASSIFICATION ( '', '', #2 ) ;
#34 = DIRECTION ( 'NONE',  ( 0.0000000000000000000, 0.0000000000000000000, 1.000000000000000000 ) ) ;
#35 = MANIFOLD_SOLID_BREP ( 'Boss-Extrude1', #10 ) ;
#36 = EDGE_CURVE ( 'NONE', #157, #59, #143, .T. ) ;
#37 = SHAPE_DEFINITION_REPRESENTATION ( #141, #67 ) ;
#38 = CARTESIAN_POINT ( 'NONE',  ( 25.00000000000000000, 3.061616997868383000E-015, 0.0000000000000000000 ) ) ;
#39 =( NAMED_UNIT ( * ) SI_UNIT ( $, .STERADIAN. ) SOLID_ANGLE_UNIT ( ) );
#40 = CARTESIAN_POINT ( 'NONE',  ( 0.0000000000000000000, 0.0000000000000000000, 0.0000000000000000000 ) ) ;
#41 = PERSON_AND_ORGANIZATION ( #52, #42 ) ;
#42 = ORGANIZATION ( 'UNSPECIFIED', 'UNSPECIFIED', '' ) ;
#43 = PERSON_AND_ORGANIZATION ( #52, #42 ) ;
#44 = CALENDAR_DATE ( 2017, 22, 6 ) ;
#45 = DIRECTION ( 'NONE',  ( 1.000000000000000000, 0.0000000000000000000, 0.0000000000000000000 ) ) ;
#46 = APPROVAL_PERSON_ORGANIZATION ( #133, #119, #129 ) ;
#47 = DIRECTION ( 'NONE',  ( 1.000000000000000000, 0.0000000000000000000, -0.0000000000000000000 ) ) ;
#48 = APPLICATION_PROTOCOL_DEFINITION ( 'international standard', 'config_control_design', 1994, #100 ) ;
#49 = APPROVAL_ROLE ( '' ) ;
#50 = LOCAL_TIME ( 10, 40, 57.00000000000000000, #77 ) ;
#51 = CC_DESIGN_APPROVAL ( #119, ( #20 ) ) ;
#52 = PERSON ( 'UNSPECIFIED', 'UNSPECIFIED', 'UNSPECIFIED', ('UNSPECIFIED'), ('UNSPECIFIED'), ('UNSPECIFIED') ) ;
#53 = ADVANCED_FACE ( 'NONE', ( #78 ), #155, .F. ) ;
#54 = AXIS2_PLACEMENT_3D ( 'NONE', #126, #136, #118 ) ;
#55 = CIRCLE ( 'NONE', #159, 25.00000000000000000 ) ;
#56 = LOCAL_TIME ( 10, 40, 57.00000000000000000, #148 ) ;
#57 = EDGE_LOOP ( 'NONE', ( #122, #160 ) ) ;
#58 = EDGE_CURVE ( 'NONE', #99, #137, #61, .T. ) ;
#59 = VERTEX_POINT ( 'NONE', #15 ) ;
#60 = DIRECTION ( 'NONE',  ( -0.0000000000000000000, -0.0000000000000000000, -1.000000000000000000 ) ) ;
#61 = CIRCLE ( 'NONE', #111, 25.00000000000000000 ) ;
#62 = DIRECTION ( 'NONE',  ( 1.000000000000000000, 0.0000000000000000000, 0.0000000000000000000 ) ) ;
#63 = PRODUCT ( '34429_Default', '34429_Default', '', ( #5 ) ) ;
#64 = LOCAL_TIME ( 10, 40, 57.00000000000000000, #113 ) ;
#65 = DESIGN_CONTEXT ( 'detailed design', #100, 'design' ) ;
#66 = EDGE_LOOP ( 'NONE', ( #109, #135 ) ) ;
#67 = ADVANCED_BREP_SHAPE_REPRESENTATION ( '34429_Default', ( #35, #139 ), #7 ) ;
#68 = DIRECTION ( 'NONE',  ( -1.000000000000000000, 0.0000000000000000000, 0.0000000000000000000 ) ) ;
#69 = DATE_TIME_ROLE ( 'classification_date' ) ;
#70 = PERSON_AND_ORGANIZATION ( #52, #42 ) ;
#71 = CC_DESIGN_PERSON_AND_ORGANIZATION_ASSIGNMENT ( #98, #88, ( #152 ) ) ;
#72 = DATE_AND_TIME ( #142, #56 ) ;
#73 = CC_DESIGN_PERSON_AND_ORGANIZATION_ASSIGNMENT ( #82, #75, ( #63 ) ) ;
#74 = ORIENTED_EDGE ( 'NONE', *, *, #127, .T. ) ;
#75 = PERSON_AND_ORGANIZATION_ROLE ( 'design_owner' ) ;
#76 = APPROVAL_PERSON_ORGANIZATION ( #70, #114, #49 ) ;
#77 = COORDINATED_UNIVERSAL_TIME_OFFSET ( 5, 0, .BEHIND. ) ;
#78 = FACE_OUTER_BOUND ( 'NONE', #66, .T. ) ;
#79 = DIRECTION ( 'NONE',  ( 1.000000000000000000, 0.0000000000000000000, 0.0000000000000000000 ) ) ;
#80 = DIRECTION ( 'NONE',  ( 0.0000000000000000000, 0.0000000000000000000, 1.000000000000000000 ) ) ;
#81 = PERSON_AND_ORGANIZATION_ROLE ( 'creator' ) ;
#82 = PERSON_AND_ORGANIZATION ( #52, #42 ) ;
#83 = DATE_AND_TIME ( #170, #50 ) ;
#84 = CARTESIAN_POINT ( 'NONE',  ( 0.0000000000000000000, 0.0000000000000000000, 3.000000000000000000 ) ) ;
#85 = APPLICATION_CONTEXT ( 'configuration controlled 3d designs of mechanical parts and assemblies' ) ;
#86 = CC_DESIGN_PERSON_AND_ORGANIZATION_ASSIGNMENT ( #41, #107, ( #33 ) ) ;
#87 = CC_DESIGN_PERSON_AND_ORGANIZATION_ASSIGNMENT ( #171, #132, ( #152 ) ) ;
#88 = PERSON_AND_ORGANIZATION_ROLE ( 'design_supplier' ) ;
#89 = CC_DESIGN_APPROVAL ( #112, ( #152 ) ) ;
#90 = APPLICATION_PROTOCOL_DEFINITION ( 'international standard', 'config_control_design', 1994, #85 ) ;
#91 = DIRECTION ( 'NONE',  ( 0.0000000000000000000, 0.0000000000000000000, 1.000000000000000000 ) ) ;
#92 = ORIENTED_EDGE ( 'NONE', *, *, #58, .F. ) ;
#93 = CC_DESIGN_DATE_AND_TIME_ASSIGNMENT ( #72, #147, ( #20 ) ) ;
#94 = CC_DESIGN_SECURITY_CLASSIFICATION ( #33, ( #152 ) ) ;
#95 = ORIENTED_EDGE ( 'NONE', *, *, #162, .T. ) ;
#96 = FACE_OUTER_BOUND ( 'NONE', #145, .T. ) ;
#97 = APPROVAL_DATE_TIME ( #131, #119 ) ;
#98 = PERSON_AND_ORGANIZATION ( #52, #42 ) ;
#99 = VERTEX_POINT ( 'NONE', #134 ) ;
#100 = APPLICATION_CONTEXT ( 'configuration controlled 3d designs of mechanical parts and assemblies' ) ;
#101 = APPROVAL_DATE_TIME ( #140, #114 ) ;
#102 = AXIS2_PLACEMENT_3D ( 'NONE', #163, #34, #47 ) ;
#103 = CARTESIAN_POINT ( 'NONE',  ( 0.0000000000000000000, 0.0000000000000000000, 3.000000000000000000 ) ) ;
#104 = AXIS2_PLACEMENT_3D ( 'NONE', #103, #22, #68 ) ;
#105 =( LENGTH_UNIT ( ) NAMED_UNIT ( * ) SI_UNIT ( .MILLI., .METRE. ) );
#106 = DATE_AND_TIME ( #164, #9 ) ;
#107 = PERSON_AND_ORGANIZATION_ROLE ( 'classification_officer' ) ;
#108 = CC_DESIGN_APPROVAL ( #114, ( #33 ) ) ;
#109 = ORIENTED_EDGE ( 'NONE', *, *, #4, .F. ) ;
#110 = APPROVAL_STATUS ( 'not_yet_approved' ) ;
#111 = AXIS2_PLACEMENT_3D ( 'NONE', #84, #30, #79 ) ;
#112 = APPROVAL ( #3, 'UNSPECIFIED' ) ;
#113 = COORDINATED_UNIVERSAL_TIME_OFFSET ( 5, 0, .BEHIND. ) ;
#114 = APPROVAL ( #110, 'UNSPECIFIED' ) ;
#115 = CYLINDRICAL_SURFACE ( 'NONE', #104, 25.00000000000000000 ) ;
#116 = CARTESIAN_POINT ( 'NONE',  ( -25.00000000000000000, 0.0000000000000000000, 3.000000000000000000 ) ) ;
#117 = FACE_OUTER_BOUND ( 'NONE', #57, .T. ) ;
#118 = DIRECTION ( 'NONE',  ( -1.000000000000000000, 0.0000000000000000000, 0.0000000000000000000 ) ) ;
#119 = APPROVAL ( #25, 'UNSPECIFIED' ) ;
#120 = APPROVAL_DATE_TIME ( #83, #112 ) ;
#121 = CC_DESIGN_DATE_AND_TIME_ASSIGNMENT ( #106, #69, ( #33 ) ) ;
#122 = ORIENTED_EDGE ( 'NONE', *, *, #58, .T. ) ;
#123 = APPROVAL_PERSON_ORGANIZATION ( #153, #112, #14 ) ;
#124 = CIRCLE ( 'NONE', #29, 25.00000000000000000 ) ;
#125 = VECTOR ( 'NONE', #11, 1000.000000000000000 ) ;
#126 = CARTESIAN_POINT ( 'NONE',  ( 0.0000000000000000000, 0.0000000000000000000, 3.000000000000000000 ) ) ;
#127 = EDGE_CURVE ( 'NONE', #99, #59, #151, .T. ) ;
#128 = COORDINATED_UNIVERSAL_TIME_OFFSET ( 5, 0, .BEHIND. ) ;
#129 = APPROVAL_ROLE ( '' ) ;
#130 = DIRECTION ( 'NONE',  ( 1.000000000000000000, 0.0000000000000000000, 0.0000000000000000000 ) ) ;
#131 = DATE_AND_TIME ( #44, #146 ) ;
#132 = PERSON_AND_ORGANIZATION_ROLE ( 'creator' ) ;
#133 = PERSON_AND_ORGANIZATION ( #52, #42 ) ;
#134 = CARTESIAN_POINT ( 'NONE',  ( -25.00000000000000000, 0.0000000000000000000, 3.000000000000000000 ) ) ;
#135 = ORIENTED_EDGE ( 'NONE', *, *, #36, .F. ) ;
#136 = DIRECTION ( 'NONE',  ( -0.0000000000000000000, -0.0000000000000000000, -1.000000000000000000 ) ) ;
#137 = VERTEX_POINT ( 'NONE', #16 ) ;
#138 = DIRECTION ( 'NONE',  ( 1.000000000000000000, 0.0000000000000000000, -0.0000000000000000000 ) ) ;
#139 = AXIS2_PLACEMENT_3D ( 'NONE', #156, #173, #130 ) ;
#140 = DATE_AND_TIME ( #32, #64 ) ;
#141 = PRODUCT_DEFINITION_SHAPE ( 'NONE', 'NONE',  #20 ) ;
#142 = CALENDAR_DATE ( 2017, 22, 6 ) ;
#143 = CIRCLE ( 'NONE', #165, 25.00000000000000000 ) ;
#144 = PRODUCT_RELATED_PRODUCT_CATEGORY ( 'detail', '', ( #63 ) ) ;
#145 = EDGE_LOOP ( 'NONE', ( #26, #92, #74, #154 ) ) ;
#146 = LOCAL_TIME ( 10, 40, 57.00000000000000000, #174 ) ;
#147 = DATE_TIME_ROLE ( 'creation_date' ) ;
#148 = COORDINATED_UNIVERSAL_TIME_OFFSET ( 5, 0, .BEHIND. ) ;
#149 = LINE ( 'NONE', #18, #125 ) ;
#150 = ADVANCED_FACE ( 'NONE', ( #117 ), #8, .T. ) ;
#151 = LINE ( 'NONE', #116, #19 ) ;
#152 = PRODUCT_DEFINITION_FORMATION_WITH_SPECIFIED_SOURCE ( 'ANY', '', #63, .NOT_KNOWN. ) ;
#153 = PERSON_AND_ORGANIZATION ( #52, #42 ) ;
#154 = ORIENTED_EDGE ( 'NONE', *, *, #4, .T. ) ;
#155 = PLANE ( 'NONE',  #31 ) ;
#156 = CARTESIAN_POINT ( 'NONE',  ( 0.0000000000000000000, 0.0000000000000000000, 0.0000000000000000000 ) ) ;
#157 = VERTEX_POINT ( 'NONE', #38 ) ;
#158 = DIRECTION ( 'NONE',  ( 0.0000000000000000000, 0.0000000000000000000, 1.000000000000000000 ) ) ;
#159 = AXIS2_PLACEMENT_3D ( 'NONE', #17, #80, #62 ) ;
#160 = ORIENTED_EDGE ( 'NONE', *, *, #13, .T. ) ;
#161 = ORIENTED_EDGE ( 'NONE', *, *, #13, .F. ) ;
#162 = EDGE_CURVE ( 'NONE', #137, #157, #149, .T. ) ;
#163 = CARTESIAN_POINT ( 'NONE',  ( 0.0000000000000000000, 0.0000000000000000000, 3.000000000000000000 ) ) ;
#164 = CALENDAR_DATE ( 2017, 22, 6 ) ;
#165 = AXIS2_PLACEMENT_3D ( 'NONE', #1, #158, #175 ) ;
#166 = CC_DESIGN_PERSON_AND_ORGANIZATION_ASSIGNMENT ( #43, #81, ( #20 ) ) ;
#167 = CYLINDRICAL_SURFACE ( 'NONE', #54, 25.00000000000000000 ) ;
#168 = EDGE_LOOP ( 'NONE', ( #161, #95, #28, #21 ) ) ;
#169 = DIRECTION ( 'NONE',  ( 0.0000000000000000000, 0.0000000000000000000, 1.000000000000000000 ) ) ;
#170 = CALENDAR_DATE ( 2017, 22, 6 ) ;
#171 = PERSON_AND_ORGANIZATION ( #52, #42 ) ;
#172 = CARTESIAN_POINT ( 'NONE',  ( 0.0000000000000000000, 0.0000000000000000000, 3.000000000000000000 ) ) ;
#173 = DIRECTION ( 'NONE',  ( 0.0000000000000000000, 0.0000000000000000000, 1.000000000000000000 ) ) ;
#174 = COORDINATED_UNIVERSAL_TIME_OFFSET ( 5, 0, .BEHIND. ) ;
#175 = DIRECTION ( 'NONE',  ( 1.000000000000000000, 0.0000000000000000000, 0.0000000000000000000 ) ) ;
ENDSEC;
END-ISO-10303-21;
